  0
SECTION
  2
HEADER
  9
$ACADVER
  1
AC1009
  9
$INSBASE
 10
0.0
 20
0.0
 30
0.0
  9
$EXTMIN
 10
-180.01098548994739
 20
-271.71201227911092
 30
-0.0015258207003583
  9
$EXTMAX
 10
180.01098716632811
 20
263.54811651401701
 30
0.0000000349246037
  9
$LIMMIN
 10
0.0
 20
0.0
  9
$LIMMAX
 10
0.0
 20
0.0
  9
$ORTHOMODE
 70
     0
  9
$REGENMODE
 70
     1
  9
$FILLMODE
 70
     1
  9
$QTEXTMODE
 70
     0
  9
$MIRRTEXT
 70
     1
  9
$DRAGMODE
 70
     2
  9
$LTSCALE
 40
10.16
  9
$OSMODE
 70
   231
  9
$ATTMODE
 70
     1
  9
$TEXTSIZE
 40
0.0
  9
$TRACEWID
 40
1.0
  9
$TEXTSTYLE
  7
STANDARD
  9
$CLAYER
  8
DATA
  9
$CELTYPE
  6
BYLAYER
  9
$CECOLOR
 62
   256
  9
$DIMSCALE
 40
1.0
  9
$DIMASZ
 40
0.18
  9
$DIMEXO
 40
0.0625
  9
$DIMDLI
 40
0.38
  9
$DIMRND
 40
0.0
  9
$DIMDLE
 40
0.0
  9
$DIMEXE
 40
0.18
  9
$DIMTP
 40
0.0
  9
$DIMTM
 40
0.0
  9
$DIMTXT
 40
0.18
  9
$DIMCEN
 40
0.09
  9
$DIMTSZ
 40
0.0
  9
$DIMTOL
 70
     0
  9
$DIMLIM
 70
     0
  9
$DIMTIH
 70
     1
  9
$DIMTOH
 70
     1
  9
$DIMSE1
 70
     0
  9
$DIMSE2
 70
     0
  9
$DIMTAD
 70
     0
  9
$DIMZIN
 70
     0
  9
$DIMBLK
  1

  9
$DIMASO
 70
     1
  9
$DIMSHO
 70
     1
  9
$DIMPOST
  1

  9
$DIMAPOST
  1

  9
$DIMALT
 70
     0
  9
$DIMALTD
 70
     2
  9
$DIMALTF
 40
25.399999999999999
  9
$DIMLFAC
 40
1.0
  9
$DIMTOFL
 70
     0
  9
$DIMTVP
 40
0.0
  9
$DIMTIX
 70
     0
  9
$DIMSOXD
 70
     0
  9
$DIMSAH
 70
     0
  9
$DIMBLK1
  1

  9
$DIMBLK2
  1

  9
$DIMSTYLE
  2
STANDARD
  9
$DIMCLRD
 70
     0
  9
$DIMCLRE
 70
     0
  9
$DIMCLRT
 70
     0
  9
$DIMTFAC
 40
1.0
  9
$DIMGAP
 40
0.09
  9
$LUNITS
 70
     2
  9
$LUPREC
 70
     4
  9
$SKETCHINC
 40
0.1
  9
$FILLETRAD
 40
0.0
  9
$AUNITS
 70
     0
  9
$AUPREC
 70
     0
  9
$MENU
  1
acad
  9
$ELEVATION
 40
0.0
  9
$PELEVATION
 40
0.0
  9
$THICKNESS
 40
0.0
  9
$LIMCHECK
 70
     0
  9
$BLIPMODE
 70
     0
  9
$CHAMFERA
 40
0.0
  9
$CHAMFERB
 40
0.0
  9
$SKPOLY
 70
     0
  9
$TDCREATE
 40
2456769.7774421298
  9
$TDUPDATE
 40
2456769.7788143521
  9
$TDINDWG
 40
0.0003539931
  9
$TDUSRTIMER
 40
0.0003539468
  9
$USRTIMER
 70
     1
  9
$ANGBASE
 50
0.0
  9
$ANGDIR
 70
     0
  9
$PDMODE
 70
     1
  9
$PDSIZE
 40
-2.0
  9
$PLINEWID
 40
0.0
  9
$COORDS
 70
     2
  9
$SPLFRAME
 70
     0
  9
$SPLINETYPE
 70
     6
  9
$SPLINESEGS
 70
     8
  9
$ATTDIA
 70
     0
  9
$ATTREQ
 70
     1
  9
$HANDLING
 70
     1
  9
$HANDSEED
  5
3E2
  9
$SURFTAB1
 70
     6
  9
$SURFTAB2
 70
     6
  9
$SURFTYPE
 70
     6
  9
$SURFU
 70
     6
  9
$SURFV
 70
     6
  9
$UCSNAME
  2

  9
$UCSORG
 10
0.0
 20
0.0
 30
0.0
  9
$UCSXDIR
 10
1.0
 20
0.0
 30
0.0
  9
$UCSYDIR
 10
0.0
 20
1.0
 30
0.0
  9
$PUCSNAME
  2

  9
$PUCSORG
 10
0.0
 20
0.0
 30
0.0
  9
$PUCSXDIR
 10
1.0
 20
0.0
 30
0.0
  9
$PUCSYDIR
 10
0.0
 20
1.0
 30
0.0
  9
$USERI1
 70
     0
  9
$USERI2
 70
     0
  9
$USERI3
 70
     0
  9
$USERI4
 70
     0
  9
$USERI5
 70
     0
  9
$USERR1
 40
0.0
  9
$USERR2
 40
0.0
  9
$USERR3
 40
0.0
  9
$USERR4
 40
0.0
  9
$USERR5
 40
0.0
  9
$WORLDVIEW
 70
     1
  9
$SHADEDGE
 70
     3
  9
$SHADEDIF
 70
    70
  9
$TILEMODE
 70
     1
  9
$MAXACTVP
 70
    64
  9
$PLIMCHECK
 70
     0
  9
$PEXTMIN
 10
1.0000000000000000E+020
 20
1.0000000000000000E+020
 30
1.0000000000000000E+020
  9
$PEXTMAX
 10
-1.0000000000000000E+020
 20
-1.0000000000000000E+020
 30
-1.0000000000000000E+020
  9
$PLIMMIN
 10
0.0
 20
0.0
  9
$PLIMMAX
 10
12.0
 20
9.0
  9
$UNITMODE
 70
     0
  9
$VISRETAIN
 70
     0
  9
$PLINEGEN
 70
     1
  9
$PSLTSCALE
 70
     0
  0
ENDSEC
  0
SECTION
  2
TABLES
  0
TABLE
  2
VPORT
 70
     1
  0
VPORT
  2
*ACTIVE
 70
     0
 10
0.0
 20
0.0
 11
1.0
 21
1.0
 12
0.000000838190374
 22
-4.0819478825469551
 13
0.0
 23
0.0
 14
1.0
 24
1.0
 15
0.0
 25
0.0
 16
0.0
 26
0.0
 36
1.0
 17
0.0
 27
0.0
 37
0.0
 40
539.44730059594235
 41
2.1644908616187979
 42
50.0
 43
0.0
 44
0.0
 50
0.0
 51
0.0
 71
     0
 72
  2000
 73
     1
 74
     1
 75
     0
 76
     0
 77
     0
 78
     0
  0
ENDTAB
  0
TABLE
  2
LTYPE
 70
    11
  0
LTYPE
  2
CONTINUOUS
 70
     0
  3
Solid line
 72
    65
 73
     0
 40
0.0
  0
LTYPE
  2
STYLE_01
 70
     0
  3

 72
    65
 73
     2
 40
0.4166412353515625
 49
0.208282470703125
 49
-0.2083587646484375
  0
ENDTAB
  0
TABLE
  2
LAYER
 70
     5
  0
LAYER
  2
0
 70
     0
 62
     7
  6
CONTINUOUS
  0
LAYER
  2
DATA
 70
     0
 62
     7
  6
CONTINUOUS
  0
LAYER
  2
HIBINO-BASE
 70
     0
 62
     7
  6
CONTINUOUS
  0
LAYER
  2
SPEC
 70
     0
 62
     7
  6
CONTINUOUS
  0
LAYER
  2
DIMNSIONS
 70
     0
 62
     7
  6
CONTINUOUS
  0
ENDTAB
  0
TABLE
  2
STYLE
 70
     3
  0
STYLE
  2
STANDARD
 70
     0
 40
0.0
 41
1.0
 50
0.0
 71
     0
 42
0.0
  3
txt
  4
BIGFONT.SHX
  0
STYLE
  2
_______
 70
     0
 40
0.0
 41
1.0
 50
0.0
 71
     0
 42
0.0
  3
txt
  4
ＭＳ ゴシック
  0
ENDTAB
  0
TABLE
  2
VIEW
 70
     0
  0
ENDTAB
  0
TABLE
  2
UCS
 70
     0
  0
ENDTAB
  0
TABLE
  2
APPID
 70
     4
  0
APPID
  2
ACAD
 70
     0
  0
APPID
  2
ACADANNOTATIVE
 70
     0
  0
APPID
  2
ACAD_NAV_VCDISPLAY
 70
     0
  0
APPID
  2
ACAD_MLEADERVER
 70
     0
  0
ENDTAB
  0
TABLE
  2
DIMSTYLE
 70
     2
  0
DIMSTYLE
  2
STANDARD
 70
     0
  3

  4

  5

  6

  7

 40
1.0
 41
0.18
 42
0.0625
 43
0.38
 44
0.18
 45
0.0
 46
0.0
 47
0.0
 48
0.0
140
0.18
141
0.09
142
0.0
143
25.399999999999999
144
1.0
145
0.0
146
1.0
147
0.09
 71
     0
 72
     0
 73
     1
 74
     1
 75
     0
 76
     0
 77
     0
 78
     0
170
     0
171
     2
172
     0
173
     0
174
     0
175
     0
176
     0
177
     0
178
     0
  0
ENDTAB
  0
ENDSEC
  0
SECTION
  2
BLOCKS
  0
BLOCK
  8
0
  2
$MODEL_SPACE
 70
     0
 10
0.0
 20
0.0
 30
0.0
  3
$MODEL_SPACE
  1

  0
ENDBLK
  5
34C
  8
0
  0
BLOCK
 67
     1
  8
0
  2
$PAPER_SPACE
 70
     0
 10
0.0
 20
0.0
 30
0.0
  3
$PAPER_SPACE
  1

  0
ENDBLK
  5
348
 67
     1
  8
0
  0
BLOCK
  8
DATA
  2
CALLOUT
 70
     2
 10
0.0
 20
0.0
 30
0.0
  3
CALLOUT
  1

  0
LINE
  5
2E
  8
0
  6
CONTINUOUS
 62
     7
 10
-4.1854802198812981
 20
4.7753801167049117
 30
0.0
 11
0.0
 21
0.0
 31
0.0
  0
LINE
  5
2F
  8
0
  6
CONTINUOUS
 62
     7
 10
0.0
 20
0.0
 30
0.0
 11
22.605530294606801
 21
0.0
 31
0.0
  0
LINE
  5
30
  8
0
  6
CONTINUOUS
 62
     7
 10
21.9705302946068
 20
0.0
 30
0.0
 11
22.605530294606801
 21
0.0
 31
0.0
  0
SOLID
  5
31
  8
0
 62
     7
 10
22.605530294606801
 20
0.0
 30
0.0
 11
16.2555302946068
 21
-1.7014773719376299
 31
0.0
 12
16.2555302946068
 22
1.701477371937629
 32
0.0
 13
16.2555302946068
 23
1.701477371937629
 33
0.0
  0
TEXT
  5
32
  8
0
 62
     7
 10
-3.849068735582855
 20
8.2451151315485678
 30
0.0
 40
5.4294704861111107
  1
ウインドスクリーン
 50
131.2336120286655
  7
_______
 11
-7.9321845507173787
 21
4.666384211271108
 31
0.0
 73
     3
  0
ENDBLK
  5
33
  8
DATA
  0
ENDSEC
  0
SECTION
  2
ENTITIES
  0
LINE
  5
34
  8
HIBINO-BASE
  6
CONTINUOUS
 62
     7
 10
-180.0
 20
263.53181500000011
 30
0.0
 11
180.0
 21
263.53181500000011
 31
0.0
  0
LINE
  5
35
  8
HIBINO-BASE
  6
CONTINUOUS
 62
     7
 10
180.0
 20
-256.46818500000001
 30
0.0
 11
-180.0
 21
-256.46818500000001
 31
0.0
  0
LINE
  5
36
  8
HIBINO-BASE
  6
CONTINUOUS
 62
     7
 10
-180.0
 20
-256.46818500000001
 30
0.0
 11
-180.0
 21
263.53181500000011
 31
0.0
  0
LINE
  5
37
  8
HIBINO-BASE
  6
CONTINUOUS
 62
     7
 10
180.0
 20
263.53181500000011
 30
0.0
 11
180.0
 21
-256.46818500000001
 31
0.0
  0
LINE
  5
38
  8
HIBINO-BASE
  6
CONTINUOUS
 62
     7
 10
0.0000000000000142
 20
-211.46818500000001
 30
0.0
 11
180.0
 21
-211.46818500000001
 31
0.0
  0
LINE
  5
39
  8
HIBINO-BASE
  6
CONTINUOUS
 62
     7
 10
0.0000000000000142
 20
-256.46818500000001
 30
0.0
 11
0.0000000000000142
 21
-211.46818500000001
 31
0.0
  0
TEXT
  5
3A
  8
HIBINO-BASE
 62
     7
 10
1.8000000000000249
 20
-216.48557166666669
 30
0.0
 40
3.2576822916666659
  1
NOTE
 41
0.7
 11
1.8000000000000249
 21
-213.22788937499999
 31
0.0
 73
     3
  0
LINE
  5
3B
  8
HIBINO-BASE
  6
CONTINUOUS
 62
     7
 10
70.000000000000043
 20
-256.46818500000001
 30
0.0
 11
70.000000000000043
 21
-211.46818500000001
 31
0.0
  0
TEXT
  5
3C
  8
HIBINO-BASE
 62
     7
 10
71.799999999999983
 20
-216.48557166666669
 30
0.0
 40
3.2576822916666659
  1
TITLE
 41
0.7
 11
71.799999999999983
 21
-213.22788937499999
 31
0.0
 73
     3
  0
LINE
  5
3D
  8
HIBINO-BASE
  6
CONTINUOUS
 62
     7
 10
0.0000000000000142
 20
-236.46818500000001
 30
0.0
 11
180.0
 21
-236.46818500000001
 31
0.0
  0
TEXT
  5
3E
  8
HIBINO-BASE
 62
     7
 10
96.799999999999983
 20
-241.37293166666669
 30
0.0
 40
3.2576822916666659
  1
DRAWN
 41
0.7
 11
96.799999999999983
 21
-238.11524937499999
 31
0.0
 73
     3
  0
TEXT
  5
3F
  8
HIBINO-BASE
 62
     7
 10
46.79999999999999
 20
-241.37293166666669
 30
0.0
 40
3.2576822916666659
  1
DATE
 41
0.7
 11
46.79999999999999
 21
-238.11524937499999
 31
0.0
 73
     3
  0
TEXT
  5
40
  8
HIBINO-BASE
 62
     7
 10
26.800000000000001
 20
-241.37293166666669
 30
0.0
 40
3.2576822916666659
  1
SCALE
 41
0.7
 11
26.800000000000001
 21
-238.11524937499999
 31
0.0
 73
     3
  0
TEXT
  5
41
  8
HIBINO-BASE
 62
     7
 10
71.799999999999983
 20
-241.37293166666669
 30
0.0
 40
3.2576822916666659
  1
DESIGN
 41
0.7
 11
71.799999999999983
 21
-238.11524937499999
 31
0.0
 73
     3
  0
TEXT
  5
42
  8
HIBINO-BASE
 62
     7
 10
146.7999999999999
 20
-241.37293166666669
 30
0.0
 40
3.2576822916666659
  1
DRAWING NO.
 41
0.7
 11
146.7999999999999
 21
-238.11524937499999
 31
0.0
 73
     3
  0
TEXT
  5
43
  8
HIBINO-BASE
 62
     7
 10
121.7999999999999
 20
-241.37293166666669
 30
0.0
 40
3.2576822916666659
  1
CHECK
 41
0.7
 11
121.7999999999999
 21
-238.11524937499999
 31
0.0
 73
     3
  0
LINE
  5
44
  8
HIBINO-BASE
  6
CONTINUOUS
 62
     7
 10
28.750000000000011
 20
-253.96818500000001
 30
0.0
 11
36.250000000000028
 21
-246.46818500000001
 31
0.0
  0
TEXT
  5
45
  8
HIBINO-BASE
 62
     7
 10
27.500000000000011
 20
-248.68607166666661
 30
0.0
 40
3.2576822916666659
  1
1
 41
0.7
 11
27.500000000000011
 21
-245.42838937499999
 31
0.0
 73
     3
  0
LINE
  5
46
  8
HIBINO-BASE
  6
CONTINUOUS
 62
     7
 10
25.000000000000011
 20
-256.46818500000001
 30
0.0
 11
25.000000000000011
 21
-236.46818500000001
 31
0.0
  0
LINE
  5
47
  8
HIBINO-BASE
  6
CONTINUOUS
 62
     7
 10
44.999999999999993
 20
-256.46818500000001
 30
0.0
 11
44.999999999999993
 21
-236.46818500000001
 31
0.0
  0
LINE
  5
48
  8
HIBINO-BASE
  6
CONTINUOUS
 62
     7
 10
94.999999999999957
 20
-236.46818500000001
 30
0.0
 11
94.999999999999957
 21
-256.46818500000001
 31
0.0
  0
LINE
  5
49
  8
HIBINO-BASE
  6
CONTINUOUS
 62
     7
 10
145.0
 20
-236.46818500000001
 30
0.0
 11
145.0
 21
-256.46818500000001
 31
0.0
  0
LINE
  5
4A
  8
HIBINO-BASE
  6
CONTINUOUS
 62
     7
 10
119.9999999999999
 20
-256.46818500000001
 30
0.0
 11
119.9999999999999
 21
-236.46818500000001
 31
0.0
  0
TEXT
  5
4B
  8
HIBINO-BASE
 62
     7
 10
46.713080000000019
 20
-250.7408916666667
 30
0.0
 40
3.2576822916666659
  1
'14.04.
 41
0.7
 11
46.713080000000019
 21
-247.483209375
 31
0.0
 73
     3
  0
TEXT
  5
4C
  8
HIBINO-BASE
 62
     7
 10
35.000000000000007
 20
-252.43607166666669
 30
0.0
 40
3.2576822916666659
  1
2
 41
0.7
 11
35.000000000000007
 21
-249.17838937499999
 31
0.0
 73
     3
  0
TEXT
  5
4D
  8
HIBINO-BASE
 62
     7
 10
98.011620022069224
 20
-250.7408916666667
 30
0.0
 40
3.2576822916666659
  1
N.Sasaki
 41
0.7
 11
98.011620022069224
 21
-247.483209375
 31
0.0
 73
     3
  0
TEXT
  5
4E
  8
HIBINO-BASE
 62
     7
 10
7.7666666666667208
 20
-252.51618500000001
 30
0.0
 40
6.5153645833333318
  1
A4
 41
0.7
 11
7.7666666666667208
 21
-246.00082041666661
 31
0.0
 73
     3
  0
TEXT
  5
4F
  8
HIBINO-BASE
 62
     7
 10
1.916666666666671
 20
-241.7070949999999
 30
0.0
 40
3.2576822916666659
  1
PAPER SIZE
 41
0.7
 11
1.916666666666671
 21
-238.44941270833331
 31
0.0
 73
     3
  0
TEXT
  5
50
  8
HIBINO-BASE
 62
     7
 10
-165.63199999999989
 20
-269.28554059999988
 30
0.0
 40
7.2000883593749991
  1
Hibino Corporation
 41
0.7
 11
-165.63199999999989
 21
-262.08545224062487
 31
0.0
 73
     3
  0
TEXT
  5
51
  8
HIBINO-BASE
 62
     7
 10
100.13678
 20
-269.28554059999988
 30
0.0
 40
7.2000883593749991
  1
ヒビノ株式会社
 41
0.7
 11
100.13678
 21
-262.08545224062487
 31
0.0
 73
     3
  0
LINE
  5
52
  8
SPEC
  6
CONTINUOUS
 62
     7
 10
-164.99999999999989
 20
243.53181499999999
 30
0.0
 11
130.0
 21
243.53181499999999
 31
0.0
  0
LINE
  5
53
  8
SPEC
  6
CONTINUOUS
 62
     7
 10
-164.99999999999989
 20
236.03181499999999
 30
0.0
 11
130.0
 21
236.03181499999999
 31
0.0
  0
LINE
  5
54
  8
SPEC
  6
CONTINUOUS
 62
     7
 10
-164.99999999999989
 20
243.53181499999999
 30
0.0
 11
-164.99999999999989
 21
146.03181499999999
 31
0.0
  0
TEXT
  5
55
  8
SPEC
 62
     7
 10
-162.49999999999989
 20
247.53191055555561
 30
0.0
 40
3.8006293402777769
  1
仕様
 41
0.7
 11
-162.49999999999989
 21
251.33253989583329
 31
0.0
 73
     3
  0
LINE
  5
56
  8
SPEC
  6
CONTINUOUS
 62
     7
 10
-100.0
 20
243.53181499999999
 30
0.0
 11
-100.0
 21
146.03181499999999
 31
0.0
  0
LINE
  5
57
  8
SPEC
  6
CONTINUOUS
 62
     7
 10
130.0
 20
243.53181499999999
 30
0.0
 11
130.0
 21
146.03181499999999
 31
0.0
  0
TEXT
  5
58
  8
SPEC
 62
     7
 10
-163.33227323115361
 20
237.80593317851009
 30
0.0
 40
3.8006293402777769
  1
形式
 41
0.7
 11
-163.33227323115361
 21
241.6065625187878
 31
0.0
 73
     3
  0
TEXT
  5
59
  8
SPEC
 62
     7
 10
-98.141541672956279
 20
237.84978611069181
 30
0.0
 40
3.8006293402777769
  1
コンデンサー型 
 41
0.7
 11
-98.141541672956279
 21
241.6504154509696
 31
0.0
 73
     3
  0
LINE
  5
5A
  8
SPEC
  6
CONTINUOUS
 62
     7
 10
-164.99999999999989
 20
228.53181499999999
 30
0.0
 11
130.0
 21
228.53181499999999
 31
0.0
  0
LINE
  5
5B
  8
SPEC
  6
CONTINUOUS
 62
     7
 10
-164.99999999999989
 20
198.53181499999999
 30
0.0
 11
130.0
 21
198.53181499999999
 31
0.0
  0
LINE
  5
5C
  8
SPEC
  6
CONTINUOUS
 62
     7
 10
-164.99999999999989
 20
206.03181499999999
 30
0.0
 11
130.0
 21
206.03181499999999
 31
0.0
  0
LINE
  5
5D
  8
SPEC
  6
CONTINUOUS
 62
     7
 10
-164.99999999999989
 20
213.53181499999999
 30
0.0
 11
130.0
 21
213.53181499999999
 31
0.0
  0
LINE
  5
5E
  8
SPEC
  6
CONTINUOUS
 62
     7
 10
-164.99999999999989
 20
221.03181499999999
 30
0.0
 11
130.0
 21
221.03181499999999
 31
0.0
  0
LINE
  5
5F
  8
SPEC
  6
CONTINUOUS
 62
     7
 10
-164.99999999999989
 20
191.03181499999999
 30
0.0
 11
130.0
 21
191.03181499999999
 31
0.0
  0
LINE
  5
60
  8
SPEC
  6
CONTINUOUS
 62
     7
 10
-164.99999999999989
 20
183.53181499999999
 30
0.0
 11
130.0
 21
183.53181499999999
 31
0.0
  0
LINE
  5
61
  8
SPEC
  6
CONTINUOUS
 62
     7
 10
-164.99999999999989
 20
176.03181499999999
 30
0.0
 11
130.0
 21
176.03181499999999
 31
0.0
  0
LINE
  5
62
  8
SPEC
  6
CONTINUOUS
 62
     7
 10
-164.99999999999989
 20
168.53181499999999
 30
0.0
 11
130.0
 21
168.53181499999999
 31
0.0
  0
LINE
  5
63
  8
SPEC
  6
CONTINUOUS
 62
     7
 10
-164.99999999999989
 20
161.03181499999999
 30
0.0
 11
130.0
 21
161.03181499999999
 31
0.0
  0
TEXT
  5
64
  8
SPEC
 62
     7
 10
-163.22419597543021
 20
222.95039987051899
 30
0.0
 40
3.8006293402777769
  1
周波数特性
 41
0.7
 11
-163.22419597543021
 21
226.75102921079679
 31
0.0
 73
     3
  0
TEXT
  5
65
  8
SPEC
 62
     7
 10
-98.145607203664511
 20
222.7234180426895
 30
0.0
 40
3.8006293402777769
  1
20Hz～20kHz
 41
0.7
 11
-98.145607203664511
 21
226.5240473829673
 31
0.0
 73
     3
  0
TEXT
  5
66
  8
SPEC
 62
     7
 10
-163.22419597543021
 20
230.45039987051899
 30
0.0
 40
3.8006293402777769
  1
指向特性
 41
0.7
 11
-163.22419597543021
 21
234.25102921079679
 31
0.0
 73
     3
  0
TEXT
  5
67
  8
SPEC
 62
     7
 10
-98.145607203664511
 20
230.2234180426895
 30
0.0
 40
3.8006293402777769
  1
超指向性
 41
0.7
 11
-98.145607203664511
 21
234.0240473829673
 31
0.0
 73
     3
  0
TEXT
  5
68
  8
SPEC
 62
     7
 10
-163.2149369080424
 20
215.48290338040979
 30
0.0
 40
3.8006293402777769
  1
開回路感度
 41
0.7
 11
-163.2149369080424
 21
219.28353272068759
 31
0.0
 73
     3
  0
TEXT
  5
69
  8
SPEC
 62
     7
 10
-98.117552963580493
 20
215.36268517587069
 30
0.0
 40
3.8006293402777769
  1
-39dB re 1V/Pa
 41
0.7
 11
-98.117552963580493
 21
219.1633145161484
 31
0.0
 73
     3
  0
TEXT
  5
6A
  8
SPEC
 62
     7
 10
-163.9378538442391
 20
208.1933162013668
 30
0.0
 40
3.8006293402777769
  1
最大音圧レベル 
 41
0.7
 11
-163.9378538442391
 21
211.99394554164459
 31
0.0
 73
     3
  0
TEXT
  5
6B
  8
SPEC
 62
     7
 10
-98.184091278930126
 20
208.10195556686159
 30
0.0
 40
3.8006293402777769
  1
128dB SPL(THD 1%%%)
 41
0.7
 11
-98.184091278930126
 21
211.90258490713941
 31
0.0
 73
     3
  0
TEXT
  5
6C
  8
SPEC
 62
     7
 10
-98.184959522682703
 20
200.46829547279219
 30
0.0
 40
3.8006293402777769
  1
18dB SPL(Aウェイト)
 41
0.7
 11
-98.184959522682703
 21
204.26892481306999
 31
0.0
 73
     3
  0
TEXT
  5
6D
  8
SPEC
 62
     7
 10
-163.4536553845908
 20
200.49994060820771
 30
0.0
 40
3.8006293402777769
  1
等価雑音レベル
 41
0.7
 11
-163.4536553845908
 21
204.30056994848539
 31
0.0
 73
     3
  0
TEXT
  5
6E
  8
SPEC
 62
     7
 10
-163.34480979884179
 20
193.05376277711059
 30
0.0
 40
3.8006293402777769
  1
ローカットフィルター
 41
0.7
 11
-163.34480979884179
 21
196.85439211738839
 31
0.0
 73
     3
  0
TEXT
  5
6F
  8
SPEC
 62
     7
 10
-98.015000324847236
 20
185.27120412461139
 30
0.0
 40
3.8006293402777769
  1
600\U+03A9以下
 41
0.7
 11
-98.015000324847236
 21
189.07183346488921
 31
0.0
 73
     3
  0
TEXT
  5
70
  8
SPEC
 62
     7
 10
-98.768416240399404
 20
177.9955829094917
 30
0.0
 40
3.8006293402777769
  1
ファンタム DC9～52V/2mA以下
 41
0.7
 11
-98.768416240399404
 21
181.7962122497695
 31
0.0
 73
     3
  0
TEXT
  5
71
  8
SPEC
 62
     7
 10
-163.32353087543879
 20
170.58007519985421
 30
0.0
 40
3.8006293402777769
  1
コネクター
 41
0.7
 11
-163.32353087543879
 21
174.38070454013189
 31
0.0
 73
     3
  0
TEXT
  5
72
  8
SPEC
 62
     7
 10
-98.504246328209874
 20
163.24499434514991
 30
0.0
 40
3.8006293402777769
  1
20.8\U+00D7253mm
 41
0.7
 11
-98.504246328209874
 21
167.0456236854277
 31
0.0
 73
     3
  0
TEXT
  5
73
  8
SPEC
 62
     7
 10
-98.504246328209874
 20
155.74499434514979
 30
0.0
 40
3.8006293402777769
  1
154g
 41
0.7
 11
-98.504246328209874
 21
159.54562368542761
 31
0.0
 73
     3
  0
TEXT
  5
74
  8
SPEC
 62
     7
 10
-163.2655434259666
 20
148.19605009879871
 30
0.0
 40
3.8006293402777769
  1
付属品
 41
0.7
 11
-163.2655434259666
 21
151.99667943907639
 31
0.0
 73
     3
  0
TEXT
  5
75
  8
SPEC
 62
     7
 10
-98.504246328209874
 20
148.24499434514979
 30
0.0
 40
3.8006293402777769
  1
マイクホルダー(SA60)、ウインドスクリーン(W68)
 41
0.7
 11
-98.504246328209874
 21
152.04562368542761
 31
0.0
 73
     3
  0
TEXT
  5
76
  8
SPEC
 62
     7
 10
-98.664408300954719
 20
193.08830304969391
 30
0.0
 40
3.8006293402777769
  1
Flat/120Hz(12dB/oct)
 41
0.7
 11
-98.664408300954719
 21
196.8889323899717
 31
0.0
 73
     3
  0
TEXT
  5
77
  8
SPEC
 62
     7
 10
-163.72195960552571
 20
185.48647132965539
 30
0.0
 40
3.8006293402777769
  1
インピーダンス
 41
0.7
 11
-163.72195960552571
 21
189.28710066993321
 31
0.0
 73
     3
  0
TEXT
  5
78
  8
SPEC
 62
     7
 10
-163.42044057537029
 20
178.26828592289459
 30
0.0
 40
3.8006293402777769
  1
電源
 41
0.7
 11
-163.42044057537029
 21
182.06891526317241
 31
0.0
 73
     3
  0
TEXT
  5
79
  8
SPEC
 62
     7
 10
-98.272841224738372
 20
170.67527642003759
 30
0.0
 40
3.8006293402777769
  1
XLR 3ピン
 41
0.7
 11
-98.272841224738372
 21
174.4759057603153
 31
0.0
 73
     3
  0
TEXT
  5
7A
  8
SPEC
 62
     7
 10
-163.2655434259666
 20
163.19605009879871
 30
0.0
 40
3.8006293402777769
  1
寸法(\U+03C6\U+00D7全長)
 41
0.7
 11
-163.2655434259666
 21
166.9966794390765
 31
0.0
 73
     3
  0
LINE
  5
7B
  8
SPEC
  6
CONTINUOUS
 62
     7
 10
-164.99999999999989
 20
153.53181499999999
 30
0.0
 11
130.0
 21
153.53181499999999
 31
0.0
  0
LINE
  5
7C
  8
SPEC
  6
CONTINUOUS
 62
     7
 10
-164.99999999999989
 20
146.03181499999999
 30
0.0
 11
130.0
 21
146.03181499999999
 31
0.0
  0
TEXT
  5
7D
  8
SPEC
 62
     7
 10
-163.2655434259666
 20
155.69605009879871
 30
0.0
 40
3.8006293402777769
  1
質量
 41
0.7
 11
-163.2655434259666
 21
159.49667943907639
 31
0.0
 73
     3
  0
TEXT
  5
7E
  8
DIMNSIONS
 62
     7
 10
-40.0
 20
-231.929205
 30
0.0
 40
4.8865234375000002
  1
(単位：mm)
 41
0.7
 11
-40.0
 21
-227.04268156250001
 31
0.0
 73
     3
  0
LINE
  5
7F
  8
DIMNSIONS
  6
CONTINUOUS
 62
     7
 10
-94.400000000000006
 20
-185.0
 30
0.0
 11
-124.0
 21
-185.0
 31
0.0
  0
LINE
  5
80
  8
DIMNSIONS
  6
CONTINUOUS
 62
     7
 10
-94.400000000000006
 20
68.0
 30
0.0
 11
-124.0
 21
68.0
 31
0.0
  0
LINE
  5
81
  8
DIMNSIONS
  6
CONTINUOUS
 62
     7
 10
-120.0
 20
-185.0
 30
0.0
 11
-120.0
 21
68.0
 31
0.0
  0
LINE
  5
82
  8
DIMNSIONS
  6
CONTINUOUS
 62
     7
 10
-120.0
 20
-185.0
 30
0.0
 11
-121.3400795903005
 21
-179.99875488281251
 31
0.0
  0
LINE
  5
83
  8
DIMNSIONS
  6
CONTINUOUS
 62
     7
 10
-120.0
 20
-185.0
 30
0.0
 11
-118.6599204096995
 21
-179.99875488281251
 31
0.0
  0
LINE
  5
84
  8
DIMNSIONS
  6
CONTINUOUS
 62
     7
 10
-120.0
 20
68.0
 30
0.0
 11
-118.6599204096995
 21
62.998754882812499
 31
0.0
  0
LINE
  5
85
  8
DIMNSIONS
  6
CONTINUOUS
 62
     7
 10
-120.0
 20
68.0
 30
0.0
 11
-121.3400795903005
 21
62.998754882812499
 31
0.0
  0
TEXT
  5
86
  8
DIMNSIONS
 62
     7
 10
-121.98777777777769
 20
-63.791666666666657
 30
0.0
 40
5.4294704861111107
  1
253
 50
90.0
 41
0.7
 11
-127.41724826388879
 21
-63.791666666666657
 31
0.0
 73
     3
  0
LINE
  5
87
  8
DIMNSIONS
  6
CONTINUOUS
 62
     7
 10
-70.3438424147934
 20
-206.13753696591729
 30
0.0
 11
-55.0
 21
-200.0
 31
0.0
  0
LINE
  5
88
  8
DIMNSIONS
  6
CONTINUOUS
 62
     7
 10
-70.3438424147934
 20
-206.13753696591729
 30
0.0
 11
-66.15501944027595
 21
-203.09417893264441
 31
0.0
  0
LINE
  5
89
  8
DIMNSIONS
  6
CONTINUOUS
 62
     7
 10
-70.3438424147934
 20
-206.13753696591729
 30
0.0
 11
-65.194536290268971
 21
-205.5963230835502
 31
0.0
  0
LINE
  5
8A
  8
DIMNSIONS
  6
CONTINUOUS
 62
     7
 10
-55.0
 20
-200.0
 30
0.0
 11
-29.833333333333329
 21
-200.0
 31
0.0
  0
TEXT
  5
8B
  8
DIMNSIONS
 62
     7
 10
-51.0
 20
-198.01222222222219
 30
0.0
 40
5.4294704861111107
  1
\U+03C620.8
 41
0.7
 11
-51.0
 21
-192.58275173611111
 31
0.0
 73
     3
  0
TEXT
  5
8C
  8
DATA
 62
     7
 10
-175.0
 20
-240.7156294444444
 30
0.0
 40
3.8006293402777769
  1
※仕様及び外観は予告なく変更されることがあります。
 41
0.7
 11
-175.0
 21
-236.91500010416669
 31
0.0
 73
     3
  0
TEXT
  5
8D
  8
DATA
 62
     7
 10
-175.0
 20
-245.65451833333341
 30
0.0
 40
3.8006293402777769
  1
　また、同一商品でも若干の個体差があることがあります。ご了承ください。
 41
0.7
 11
-175.0
 21
-241.85388899305559
 31
0.0
 73
     3
  0
TEXT
  5
8E
  8
DATA
 62
     7
 10
-86.61309505208331
 20
-155.0
 30
0.0
 40
4.8865234375000002
  1
A K G
 41
0.7
 72
     1
 11
-79.999999999999972
 21
-155.0
 31
0.0
  0
LINE
  5
8F
  8
DATA
  6
CONTINUOUS
 62
     7
 10
-90.400000000000006
 20
68.0
 30
0.0
 11
-69.599999999999994
 21
68.0
 31
0.0
  0
CIRCLE
  5
90
  8
DATA
  6
CONTINUOUS
 62
     7
 10
-79.999999999999972
 20
120.0
 30
0.0
 40
9.5
  0
TEXT
  5
91
  8
DATA
 62
     7
 10
-86.689107638888856
 20
-160.64066666666659
 30
0.0
 40
3.2576822916666659
  1
C 568 B
 41
0.7
 72
     1
 11
-79.999999999999972
 21
-160.64066666666659
 31
0.0
  0
ARC
  5
92
  8
DATA
  6
CONTINUOUS
 62
     7
 10
-80.000000000000071
 20
-209.99999999999989
 30
0.0
 40
7.9999999999999476
 50
51.10045644322426
 51
43.937317805908393
  0
CIRCLE
  5
93
  8
DATA
  6
CONTINUOUS
 62
     7
 10
-79.999999999999972
 20
-213.90000000000001
 30
0.0
 40
1.1500000000000341
  0
CIRCLE
  5
94
  8
DATA
  6
CONTINUOUS
 62
     7
 10
-76.09999999999998
 20
-210.54994592464581
 30
0.0
 40
1.149999999999977
  0
CIRCLE
  5
95
  8
DATA
  6
CONTINUOUS
 62
     7
 10
-83.900000000000006
 20
-210.54994592464581
 30
0.0
 40
1.149999999999977
  0
ARC
  5
96
  8
DATA
  6
CONTINUOUS
 62
     7
 10
-74.597222936303893
 20
-204.09999999999999
 30
0.0
 40
0.4999999999999633
 50
315.72810246523608
 51
139.30967178390131
  0
LINE
  5
97
  8
DATA
  6
CONTINUOUS
 62
     7
 10
-90.400000000000006
 20
68.0
 30
0.0
 11
-90.400000000000006
 21
-185.0
 31
0.0
  0
LINE
  5
98
  8
DATA
  6
CONTINUOUS
 62
     7
 10
-69.599999999999994
 20
68.0
 30
0.0
 11
-69.599999999999994
 21
-185.0
 31
0.0
  0
CIRCLE
  5
99
  8
DATA
  6
CONTINUOUS
 62
     7
 10
-79.999999999999972
 20
-210.0
 30
0.0
 40
9.5
  0
LINE
  5
9A
  8
DATA
  6
CONTINUOUS
 62
     7
 10
-90.400000000000006
 20
-185.0
 30
0.0
 11
-69.599999999999994
 21
-185.0
 31
0.0
  0
CIRCLE
  5
9B
  8
DATA
  6
CONTINUOUS
 62
     7
 10
-79.999999999999972
 20
-168.0
 30
0.0
 40
1.5
  0
LINE
  5
9C
  8
DATA
  6
CONTINUOUS
 62
     7
 10
-78.859880516921208
 20
-168.97474487139161
 30
0.0
 11
-80.274094079293789
 21
-166.5252551286093
 31
0.0
  0
LINE
  5
9D
  8
DATA
  6
CONTINUOUS
 62
     7
 10
-79.725905920705088
 20
-169.4747448713924
 30
0.0
 11
-81.140119483078223
 21
-167.0252551286093
 31
0.0
  0
LINE
  5
9E
  8
DATA
  6
CONTINUOUS
 62
     7
 10
-86.749999999999943
 20
-90.0
 30
0.0
 11
-73.249999999999972
 21
-90.0
 31
0.0
  0
LINE
  5
9F
  8
DATA
  6
CONTINUOUS
 62
     7
 10
-86.749999999999943
 20
-82.0
 30
0.0
 11
-73.249999999999972
 21
-82.0
 31
0.0
  0
LINE
  5
A0
  8
DATA
  6
CONTINUOUS
 62
     7
 10
-86.749999999999943
 20
-88.250000000000014
 30
0.0
 11
-73.249999999999972
 21
-88.250000000000014
 31
0.0
  0
LINE
  5
A1
  8
DATA
  6
CONTINUOUS
 62
     7
 10
-86.749999999999943
 20
-83.75
 30
0.0
 11
-73.249999999999972
 21
-83.75
 31
0.0
  0
LINE
  5
A2
  8
DATA
  6
CONTINUOUS
 62
     7
 10
-86.749999999999943
 20
-85.150000000000006
 30
0.0
 11
-73.249999999999972
 21
-85.150000000000006
 31
0.0
  0
LINE
  5
A3
  8
DATA
  6
CONTINUOUS
 62
     7
 10
-86.749999999999943
 20
-86.84999999999998
 30
0.0
 11
-73.249999999999972
 21
-86.84999999999998
 31
0.0
  0
LINE
  5
A4
  8
DATA
  6
CONTINUOUS
 62
     7
 10
-84.999999999999986
 20
-82.0
 30
0.0
 11
-84.999999999999986
 21
-83.75
 31
0.0
  0
LINE
  5
A5
  8
DATA
  6
CONTINUOUS
 62
     7
 10
-84.999999999999986
 20
-85.150000000000006
 30
0.0
 11
-84.999999999999986
 21
-86.84999999999998
 31
0.0
  0
LINE
  5
A6
  8
DATA
  6
CONTINUOUS
 62
     7
 10
-84.999999999999986
 20
-88.250000000000014
 30
0.0
 11
-84.999999999999986
 21
-90.0
 31
0.0
  0
LINE
  5
A7
  8
DATA
  6
CONTINUOUS
 62
     7
 10
-74.999999999999972
 20
-82.0
 30
0.0
 11
-74.999999999999972
 21
-83.75
 31
0.0
  0
LINE
  5
A8
  8
DATA
  6
CONTINUOUS
 62
     7
 10
-74.999999999999972
 20
-85.150000000000006
 30
0.0
 11
-74.999999999999972
 21
-86.84999999999998
 31
0.0
  0
LINE
  5
A9
  8
DATA
  6
CONTINUOUS
 62
     7
 10
-74.999999999999972
 20
-88.250000000000014
 30
0.0
 11
-74.999999999999972
 21
-90.0
 31
0.0
  0
CIRCLE
  5
AA
  8
DATA
  6
CONTINUOUS
 62
     7
 10
-80.000000000000071
 20
-209.99999999999989
 30
0.0
 40
10.39999999999997
  0
CIRCLE
  5
AB
  8
DATA
  6
CONTINUOUS
 62
     7
 10
-79.999999999999972
 20
120.0
 30
0.0
 40
10.39999999999997
  0
LINE
  5
AC
  8
DATA
  6
CONTINUOUS
 62
     7
 10
-90.400000000000006
 20
64.299999999999983
 30
0.0
 11
-69.599999999999994
 21
64.299999999999983
 31
0.0
  0
LINE
  5
AD
  8
DATA
  6
CONTINUOUS
 62
     7
 10
-10.4
 20
68.0
 30
0.0
 11
10.4
 21
68.0
 31
0.0
  0
TEXT
  5
AE
  8
DATA
 62
     7
 10
-4.0540046296296008
 20
-169.4073333333333
 30
0.0
 40
2.1717881944444439
  1
P12-48
 41
0.7
 72
     1
 11
0.0000000000000284
 21
-169.4073333333333
 31
0.0
  0
LINE
  5
AF
  8
DATA
  6
CONTINUOUS
 62
     7
 10
-10.4
 20
68.0
 30
0.0
 11
-10.4
 21
-185.0
 31
0.0
  0
LINE
  5
B0
  8
DATA
  6
CONTINUOUS
 62
     7
 10
10.4
 20
68.0
 30
0.0
 11
10.4
 21
-185.0
 31
0.0
  0
LINE
  5
B1
  8
DATA
  6
CONTINUOUS
 62
     7
 10
-10.4
 20
-185.0
 30
0.0
 11
10.4
 21
-185.0
 31
0.0
  0
LINE
  5
B2
  8
DATA
  6
CONTINUOUS
 62
     7
 10
-6.7499999999999707
 20
-90.0
 30
0.0
 11
6.7500000000000284
 21
-90.0
 31
0.0
  0
LINE
  5
B3
  8
DATA
  6
CONTINUOUS
 62
     7
 10
-6.7499999999999707
 20
-82.0
 30
0.0
 11
6.7500000000000284
 21
-82.0
 31
0.0
  0
LINE
  5
B4
  8
DATA
  6
CONTINUOUS
 62
     7
 10
-6.7499999999999707
 20
-88.250000000000014
 30
0.0
 11
6.7500000000000284
 21
-88.250000000000014
 31
0.0
  0
LINE
  5
B5
  8
DATA
  6
CONTINUOUS
 62
     7
 10
-6.7499999999999707
 20
-83.75
 30
0.0
 11
6.7500000000000284
 21
-83.75
 31
0.0
  0
LINE
  5
B6
  8
DATA
  6
CONTINUOUS
 62
     7
 10
-6.7499999999999707
 20
-85.150000000000006
 30
0.0
 11
6.7500000000000284
 21
-85.150000000000006
 31
0.0
  0
LINE
  5
B7
  8
DATA
  6
CONTINUOUS
 62
     7
 10
-6.7499999999999707
 20
-86.84999999999998
 30
0.0
 11
6.7500000000000284
 21
-86.84999999999998
 31
0.0
  0
LINE
  5
B8
  8
DATA
  6
CONTINUOUS
 62
     7
 10
-4.9999999999999707
 20
-82.0
 30
0.0
 11
-4.9999999999999707
 21
-83.75
 31
0.0
  0
LINE
  5
B9
  8
DATA
  6
CONTINUOUS
 62
     7
 10
-4.9999999999999707
 20
-85.150000000000006
 30
0.0
 11
-4.9999999999999707
 21
-86.84999999999998
 31
0.0
  0
LINE
  5
BA
  8
DATA
  6
CONTINUOUS
 62
     7
 10
-4.9999999999999707
 20
-88.250000000000014
 30
0.0
 11
-4.9999999999999707
 21
-90.0
 31
0.0
  0
LINE
  5
BB
  8
DATA
  6
CONTINUOUS
 62
     7
 10
5.0000000000000284
 20
-82.0
 30
0.0
 11
5.0000000000000284
 21
-83.75
 31
0.0
  0
LINE
  5
BC
  8
DATA
  6
CONTINUOUS
 62
     7
 10
5.0000000000000284
 20
-85.150000000000006
 30
0.0
 11
5.0000000000000284
 21
-86.84999999999998
 31
0.0
  0
LINE
  5
BD
  8
DATA
  6
CONTINUOUS
 62
     7
 10
5.0000000000000284
 20
-88.250000000000014
 30
0.0
 11
5.0000000000000284
 21
-90.0
 31
0.0
  0
LINE
  5
BE
  8
DATA
  6
CONTINUOUS
 62
     7
 10
-10.4
 20
64.299999999999983
 30
0.0
 11
10.4
 21
64.299999999999983
 31
0.0
  0
POLYLINE
  5
BF
  8
DATA
  6
CONTINUOUS
 62
     7
 66
     1
 10
0.0
 20
0.0
 30
0.0
 70
   129
  0
VERTEX
  5
37D
  8
DATA
  6
CONTINUOUS
 62
     7
 10
-5.9000000000000048
 20
61.29999999999999
 30
0.0
 42
-0.4142135623730951
  0
VERTEX
  5
37E
  8
DATA
  6
CONTINUOUS
 62
     7
 10
-4.9000000000000048
 20
62.299999999999983
 30
0.0
  0
VERTEX
  5
37F
  8
DATA
  6
CONTINUOUS
 62
     7
 10
4.9000000000000048
 20
62.299999999999983
 30
0.0
 42
-0.4142135623730951
  0
VERTEX
  5
380
  8
DATA
  6
CONTINUOUS
 62
     7
 10
5.9000000000000048
 20
61.29999999999999
 30
0.0
  0
VERTEX
  5
381
  8
DATA
  6
CONTINUOUS
 62
     7
 10
5.9000000000000048
 20
-0.20000000000001
 30
0.0
 42
-0.4142135623730951
  0
VERTEX
  5
382
  8
DATA
  6
CONTINUOUS
 62
     7
 10
4.9000000000000048
 20
-1.2000000000000091
 30
0.0
  0
VERTEX
  5
383
  8
DATA
  6
CONTINUOUS
 62
     7
 10
-4.9000000000000048
 20
-1.2000000000000091
 30
0.0
 42
-0.4142135623730951
  0
VERTEX
  5
384
  8
DATA
  6
CONTINUOUS
 62
     7
 10
-5.9000000000000048
 20
-0.20000000000001
 30
0.0
  0
SEQEND
  5
385
  8
DATA
  6
CONTINUOUS
 62
     7
  0
POLYLINE
  5
C9
  8
DATA
  6
CONTINUOUS
 62
     7
 66
     1
 10
0.0
 20
0.0
 30
0.0
 70
   129
  0
VERTEX
  5
386
  8
DATA
  6
CONTINUOUS
 62
     7
 10
-6.7499999999999707
 20
61.799999999999983
 30
0.0
 42
-0.4142135623730951
  0
VERTEX
  5
387
  8
DATA
  6
CONTINUOUS
 62
     7
 10
-5.7499999999999707
 20
62.799999999999983
 30
0.0
  0
VERTEX
  5
388
  8
DATA
  6
CONTINUOUS
 62
     7
 10
5.7500000000000284
 20
62.799999999999983
 30
0.0
 42
-0.4142135623730951
  0
VERTEX
  5
389
  8
DATA
  6
CONTINUOUS
 62
     7
 10
6.7500000000000284
 20
61.799999999999983
 30
0.0
  0
VERTEX
  5
38A
  8
DATA
  6
CONTINUOUS
 62
     7
 10
6.7500000000000284
 20
-0.70000000000001
 30
0.0
 42
-0.4142135623730951
  0
VERTEX
  5
38B
  8
DATA
  6
CONTINUOUS
 62
     7
 10
5.7500000000000284
 20
-1.7000000000000091
 30
0.0
  0
VERTEX
  5
38C
  8
DATA
  6
CONTINUOUS
 62
     7
 10
-5.7499999999999707
 20
-1.7000000000000091
 30
0.0
 42
-0.4142135623730951
  0
VERTEX
  5
38D
  8
DATA
  6
CONTINUOUS
 62
     7
 10
-6.7499999999999707
 20
-0.70000000000001
 30
0.0
  0
SEQEND
  5
38E
  8
DATA
  6
CONTINUOUS
 62
     7
  0
LINE
  5
D3
  8
DATA
  6
CONTINUOUS
 62
     7
 10
5.0000000000000284
 20
61.29999999999999
 30
0.0
 11
5.0000000000000284
 21
59.799999999999983
 31
0.0
  0
LINE
  5
D4
  8
DATA
  6
CONTINUOUS
 62
     7
 10
5.0000000000000284
 20
58.299999999999983
 30
0.0
 11
5.0000000000000284
 21
56.799999999999983
 31
0.0
  0
LINE
  5
D5
  8
DATA
  6
CONTINUOUS
 62
     7
 10
5.0000000000000284
 20
55.299999999999983
 30
0.0
 11
5.0000000000000284
 21
53.79999999999999
 31
0.0
  0
LINE
  5
D6
  8
DATA
  6
CONTINUOUS
 62
     7
 10
5.0000000000000284
 20
52.299999999999983
 30
0.0
 11
5.0000000000000284
 21
50.799999999999983
 31
0.0
  0
LINE
  5
D7
  8
DATA
  6
CONTINUOUS
 62
     7
 10
5.0000000000000284
 20
49.299999999999983
 30
0.0
 11
5.0000000000000284
 21
47.799999999999983
 31
0.0
  0
LINE
  5
D8
  8
DATA
  6
CONTINUOUS
 62
     7
 10
5.0000000000000284
 20
46.299999999999983
 30
0.0
 11
5.0000000000000284
 21
44.799999999999983
 31
0.0
  0
LINE
  5
D9
  8
DATA
  6
CONTINUOUS
 62
     7
 10
5.0000000000000284
 20
43.29999999999999
 30
0.0
 11
5.0000000000000284
 21
41.799999999999983
 31
0.0
  0
LINE
  5
DA
  8
DATA
  6
CONTINUOUS
 62
     7
 10
5.0000000000000284
 20
40.29999999999999
 30
0.0
 11
5.0000000000000284
 21
38.79999999999999
 31
0.0
  0
LINE
  5
DB
  8
DATA
  6
CONTINUOUS
 62
     7
 10
5.0000000000000284
 20
37.29999999999999
 30
0.0
 11
5.0000000000000284
 21
35.79999999999999
 31
0.0
  0
LINE
  5
DC
  8
DATA
  6
CONTINUOUS
 62
     7
 10
5.0000000000000284
 20
34.29999999999999
 30
0.0
 11
5.0000000000000284
 21
32.79999999999999
 31
0.0
  0
LINE
  5
DD
  8
DATA
  6
CONTINUOUS
 62
     7
 10
5.0000000000000284
 20
31.29999999999999
 30
0.0
 11
5.0000000000000284
 21
29.79999999999999
 31
0.0
  0
LINE
  5
DE
  8
DATA
  6
CONTINUOUS
 62
     7
 10
5.0000000000000284
 20
28.29999999999999
 30
0.0
 11
5.0000000000000284
 21
26.79999999999999
 31
0.0
  0
LINE
  5
DF
  8
DATA
  6
CONTINUOUS
 62
     7
 10
5.0000000000000284
 20
25.29999999999999
 30
0.0
 11
5.0000000000000284
 21
23.79999999999999
 31
0.0
  0
LINE
  5
E0
  8
DATA
  6
CONTINUOUS
 62
     7
 10
5.0000000000000284
 20
22.29999999999999
 30
0.0
 11
5.0000000000000284
 21
20.79999999999999
 31
0.0
  0
LINE
  5
E1
  8
DATA
  6
CONTINUOUS
 62
     7
 10
5.0000000000000284
 20
19.29999999999999
 30
0.0
 11
5.0000000000000284
 21
17.799999999999979
 31
0.0
  0
LINE
  5
E2
  8
DATA
  6
CONTINUOUS
 62
     7
 10
5.0000000000000284
 20
16.29999999999999
 30
0.0
 11
5.0000000000000284
 21
14.79999999999999
 31
0.0
  0
LINE
  5
E3
  8
DATA
  6
CONTINUOUS
 62
     7
 10
5.0000000000000284
 20
13.29999999999999
 30
0.0
 11
5.0000000000000284
 21
11.79999999999999
 31
0.0
  0
LINE
  5
E4
  8
DATA
  6
CONTINUOUS
 62
     7
 10
5.0000000000000284
 20
10.29999999999999
 30
0.0
 11
5.0000000000000284
 21
8.7999999999999901
 31
0.0
  0
LINE
  5
E5
  8
DATA
  6
CONTINUOUS
 62
     7
 10
5.0000000000000284
 20
7.2999999999999901
 30
0.0
 11
5.0000000000000284
 21
5.7999999999999901
 31
0.0
  0
LINE
  5
E6
  8
DATA
  6
CONTINUOUS
 62
     7
 10
5.0000000000000284
 20
4.2999999999999901
 30
0.0
 11
5.0000000000000284
 21
2.7999999999999901
 31
0.0
  0
LINE
  5
E7
  8
DATA
  6
CONTINUOUS
 62
     7
 10
5.0000000000000284
 20
1.2999999999999901
 30
0.0
 11
5.0000000000000284
 21
-0.20000000000001
 31
0.0
  0
LINE
  5
E8
  8
DATA
  6
CONTINUOUS
 62
     7
 10
-4.9999999999999707
 20
61.29999999999999
 30
0.0
 11
-4.9999999999999707
 21
59.799999999999983
 31
0.0
  0
LINE
  5
E9
  8
DATA
  6
CONTINUOUS
 62
     7
 10
-4.9999999999999707
 20
58.299999999999983
 30
0.0
 11
-4.9999999999999707
 21
56.799999999999983
 31
0.0
  0
LINE
  5
EA
  8
DATA
  6
CONTINUOUS
 62
     7
 10
-4.9999999999999707
 20
55.299999999999983
 30
0.0
 11
-4.9999999999999707
 21
53.79999999999999
 31
0.0
  0
LINE
  5
EB
  8
DATA
  6
CONTINUOUS
 62
     7
 10
-4.9999999999999707
 20
52.299999999999983
 30
0.0
 11
-4.9999999999999707
 21
50.799999999999983
 31
0.0
  0
LINE
  5
EC
  8
DATA
  6
CONTINUOUS
 62
     7
 10
-4.9999999999999707
 20
49.299999999999983
 30
0.0
 11
-4.9999999999999707
 21
47.799999999999983
 31
0.0
  0
LINE
  5
ED
  8
DATA
  6
CONTINUOUS
 62
     7
 10
-4.9999999999999707
 20
46.299999999999983
 30
0.0
 11
-4.9999999999999707
 21
44.799999999999983
 31
0.0
  0
LINE
  5
EE
  8
DATA
  6
CONTINUOUS
 62
     7
 10
-4.9999999999999707
 20
43.29999999999999
 30
0.0
 11
-4.9999999999999707
 21
41.799999999999983
 31
0.0
  0
LINE
  5
EF
  8
DATA
  6
CONTINUOUS
 62
     7
 10
-4.9999999999999707
 20
40.29999999999999
 30
0.0
 11
-4.9999999999999707
 21
38.79999999999999
 31
0.0
  0
LINE
  5
F0
  8
DATA
  6
CONTINUOUS
 62
     7
 10
-4.9999999999999707
 20
37.29999999999999
 30
0.0
 11
-4.9999999999999707
 21
35.79999999999999
 31
0.0
  0
LINE
  5
F1
  8
DATA
  6
CONTINUOUS
 62
     7
 10
-4.9999999999999707
 20
34.29999999999999
 30
0.0
 11
-4.9999999999999707
 21
32.79999999999999
 31
0.0
  0
LINE
  5
F2
  8
DATA
  6
CONTINUOUS
 62
     7
 10
-4.9999999999999707
 20
31.29999999999999
 30
0.0
 11
-4.9999999999999707
 21
29.79999999999999
 31
0.0
  0
LINE
  5
F3
  8
DATA
  6
CONTINUOUS
 62
     7
 10
-4.9999999999999707
 20
28.29999999999999
 30
0.0
 11
-4.9999999999999707
 21
26.79999999999999
 31
0.0
  0
LINE
  5
F4
  8
DATA
  6
CONTINUOUS
 62
     7
 10
-4.9999999999999707
 20
25.29999999999999
 30
0.0
 11
-4.9999999999999707
 21
23.79999999999999
 31
0.0
  0
LINE
  5
F5
  8
DATA
  6
CONTINUOUS
 62
     7
 10
-4.9999999999999707
 20
22.29999999999999
 30
0.0
 11
-4.9999999999999707
 21
20.79999999999999
 31
0.0
  0
LINE
  5
F6
  8
DATA
  6
CONTINUOUS
 62
     7
 10
-4.9999999999999707
 20
19.29999999999999
 30
0.0
 11
-4.9999999999999707
 21
17.799999999999979
 31
0.0
  0
LINE
  5
F7
  8
DATA
  6
CONTINUOUS
 62
     7
 10
-4.9999999999999707
 20
16.29999999999999
 30
0.0
 11
-4.9999999999999707
 21
14.79999999999999
 31
0.0
  0
LINE
  5
F8
  8
DATA
  6
CONTINUOUS
 62
     7
 10
-4.9999999999999707
 20
13.29999999999999
 30
0.0
 11
-4.9999999999999707
 21
11.79999999999999
 31
0.0
  0
LINE
  5
F9
  8
DATA
  6
CONTINUOUS
 62
     7
 10
-4.9999999999999707
 20
10.29999999999999
 30
0.0
 11
-4.9999999999999707
 21
8.7999999999999901
 31
0.0
  0
LINE
  5
FA
  8
DATA
  6
CONTINUOUS
 62
     7
 10
-4.9999999999999707
 20
7.2999999999999901
 30
0.0
 11
-4.9999999999999707
 21
5.7999999999999901
 31
0.0
  0
LINE
  5
FB
  8
DATA
  6
CONTINUOUS
 62
     7
 10
-4.9999999999999707
 20
4.2999999999999901
 30
0.0
 11
-4.9999999999999707
 21
2.7999999999999901
 31
0.0
  0
LINE
  5
FC
  8
DATA
  6
CONTINUOUS
 62
     7
 10
-4.9999999999999707
 20
1.2999999999999901
 30
0.0
 11
-4.9999999999999707
 21
-0.20000000000001
 31
0.0
  0
LINE
  5
FD
  8
DATA
  6
CONTINUOUS
 62
     7
 10
-4.9999999999999707
 20
61.29999999999999
 30
0.0
 11
5.0000000000000284
 21
61.29999999999999
 31
0.0
  0
LINE
  5
FE
  8
DATA
  6
CONTINUOUS
 62
     7
 10
-4.9999999999999707
 20
59.799999999999983
 30
0.0
 11
5.0000000000000284
 21
59.799999999999983
 31
0.0
  0
LINE
  5
FF
  8
DATA
  6
CONTINUOUS
 62
     7
 10
-4.9999999999999707
 20
58.299999999999983
 30
0.0
 11
5.0000000000000284
 21
58.299999999999983
 31
0.0
  0
LINE
  5
100
  8
DATA
  6
CONTINUOUS
 62
     7
 10
-4.9999999999999707
 20
56.799999999999983
 30
0.0
 11
5.0000000000000284
 21
56.799999999999983
 31
0.0
  0
LINE
  5
101
  8
DATA
  6
CONTINUOUS
 62
     7
 10
-4.9999999999999707
 20
55.299999999999983
 30
0.0
 11
5.0000000000000284
 21
55.299999999999983
 31
0.0
  0
LINE
  5
102
  8
DATA
  6
CONTINUOUS
 62
     7
 10
-4.9999999999999707
 20
53.79999999999999
 30
0.0
 11
5.0000000000000284
 21
53.79999999999999
 31
0.0
  0
LINE
  5
103
  8
DATA
  6
CONTINUOUS
 62
     7
 10
-4.9999999999999707
 20
52.299999999999983
 30
0.0
 11
5.0000000000000284
 21
52.299999999999983
 31
0.0
  0
LINE
  5
104
  8
DATA
  6
CONTINUOUS
 62
     7
 10
-4.9999999999999707
 20
50.799999999999983
 30
0.0
 11
5.0000000000000284
 21
50.799999999999983
 31
0.0
  0
LINE
  5
105
  8
DATA
  6
CONTINUOUS
 62
     7
 10
-4.9999999999999707
 20
49.299999999999983
 30
0.0
 11
5.0000000000000284
 21
49.299999999999983
 31
0.0
  0
LINE
  5
106
  8
DATA
  6
CONTINUOUS
 62
     7
 10
-4.9999999999999707
 20
47.799999999999983
 30
0.0
 11
5.0000000000000284
 21
47.799999999999983
 31
0.0
  0
LINE
  5
107
  8
DATA
  6
CONTINUOUS
 62
     7
 10
-4.9999999999999707
 20
46.299999999999983
 30
0.0
 11
5.0000000000000284
 21
46.299999999999983
 31
0.0
  0
LINE
  5
108
  8
DATA
  6
CONTINUOUS
 62
     7
 10
-4.9999999999999707
 20
44.799999999999983
 30
0.0
 11
5.0000000000000284
 21
44.799999999999983
 31
0.0
  0
LINE
  5
109
  8
DATA
  6
CONTINUOUS
 62
     7
 10
-4.9999999999999707
 20
43.29999999999999
 30
0.0
 11
5.0000000000000284
 21
43.29999999999999
 31
0.0
  0
LINE
  5
10A
  8
DATA
  6
CONTINUOUS
 62
     7
 10
-4.9999999999999707
 20
41.799999999999983
 30
0.0
 11
5.0000000000000284
 21
41.799999999999983
 31
0.0
  0
LINE
  5
10B
  8
DATA
  6
CONTINUOUS
 62
     7
 10
-4.9999999999999707
 20
40.29999999999999
 30
0.0
 11
5.0000000000000284
 21
40.29999999999999
 31
0.0
  0
LINE
  5
10C
  8
DATA
  6
CONTINUOUS
 62
     7
 10
-4.9999999999999707
 20
38.79999999999999
 30
0.0
 11
5.0000000000000284
 21
38.79999999999999
 31
0.0
  0
LINE
  5
10D
  8
DATA
  6
CONTINUOUS
 62
     7
 10
-4.9999999999999707
 20
37.29999999999999
 30
0.0
 11
5.0000000000000284
 21
37.29999999999999
 31
0.0
  0
LINE
  5
10E
  8
DATA
  6
CONTINUOUS
 62
     7
 10
-4.9999999999999707
 20
35.79999999999999
 30
0.0
 11
5.0000000000000284
 21
35.79999999999999
 31
0.0
  0
LINE
  5
10F
  8
DATA
  6
CONTINUOUS
 62
     7
 10
-4.9999999999999707
 20
34.29999999999999
 30
0.0
 11
5.0000000000000284
 21
34.29999999999999
 31
0.0
  0
LINE
  5
110
  8
DATA
  6
CONTINUOUS
 62
     7
 10
-4.9999999999999707
 20
32.79999999999999
 30
0.0
 11
5.0000000000000284
 21
32.79999999999999
 31
0.0
  0
LINE
  5
111
  8
DATA
  6
CONTINUOUS
 62
     7
 10
-4.9999999999999707
 20
31.29999999999999
 30
0.0
 11
5.0000000000000284
 21
31.29999999999999
 31
0.0
  0
LINE
  5
112
  8
DATA
  6
CONTINUOUS
 62
     7
 10
-4.9999999999999707
 20
29.79999999999999
 30
0.0
 11
5.0000000000000284
 21
29.79999999999999
 31
0.0
  0
LINE
  5
113
  8
DATA
  6
CONTINUOUS
 62
     7
 10
-4.9999999999999707
 20
28.29999999999999
 30
0.0
 11
5.0000000000000284
 21
28.29999999999999
 31
0.0
  0
LINE
  5
114
  8
DATA
  6
CONTINUOUS
 62
     7
 10
-4.9999999999999707
 20
26.79999999999999
 30
0.0
 11
5.0000000000000284
 21
26.79999999999999
 31
0.0
  0
LINE
  5
115
  8
DATA
  6
CONTINUOUS
 62
     7
 10
-4.9999999999999707
 20
25.29999999999999
 30
0.0
 11
5.0000000000000284
 21
25.29999999999999
 31
0.0
  0
LINE
  5
116
  8
DATA
  6
CONTINUOUS
 62
     7
 10
-4.9999999999999707
 20
23.79999999999999
 30
0.0
 11
5.0000000000000284
 21
23.79999999999999
 31
0.0
  0
LINE
  5
117
  8
DATA
  6
CONTINUOUS
 62
     7
 10
-4.9999999999999707
 20
22.29999999999999
 30
0.0
 11
5.0000000000000284
 21
22.29999999999999
 31
0.0
  0
LINE
  5
118
  8
DATA
  6
CONTINUOUS
 62
     7
 10
-4.9999999999999707
 20
20.79999999999999
 30
0.0
 11
5.0000000000000284
 21
20.79999999999999
 31
0.0
  0
LINE
  5
119
  8
DATA
  6
CONTINUOUS
 62
     7
 10
-4.9999999999999707
 20
19.29999999999999
 30
0.0
 11
5.0000000000000284
 21
19.29999999999999
 31
0.0
  0
LINE
  5
11A
  8
DATA
  6
CONTINUOUS
 62
     7
 10
-4.9999999999999707
 20
17.799999999999979
 30
0.0
 11
5.0000000000000284
 21
17.799999999999979
 31
0.0
  0
LINE
  5
11B
  8
DATA
  6
CONTINUOUS
 62
     7
 10
-4.9999999999999707
 20
16.29999999999999
 30
0.0
 11
5.0000000000000284
 21
16.29999999999999
 31
0.0
  0
LINE
  5
11C
  8
DATA
  6
CONTINUOUS
 62
     7
 10
-4.9999999999999707
 20
14.79999999999999
 30
0.0
 11
5.0000000000000284
 21
14.79999999999999
 31
0.0
  0
LINE
  5
11D
  8
DATA
  6
CONTINUOUS
 62
     7
 10
-4.9999999999999707
 20
13.29999999999999
 30
0.0
 11
5.0000000000000284
 21
13.29999999999999
 31
0.0
  0
LINE
  5
11E
  8
DATA
  6
CONTINUOUS
 62
     7
 10
-4.9999999999999707
 20
11.79999999999999
 30
0.0
 11
5.0000000000000284
 21
11.79999999999999
 31
0.0
  0
LINE
  5
11F
  8
DATA
  6
CONTINUOUS
 62
     7
 10
-4.9999999999999707
 20
10.29999999999999
 30
0.0
 11
5.0000000000000284
 21
10.29999999999999
 31
0.0
  0
LINE
  5
120
  8
DATA
  6
CONTINUOUS
 62
     7
 10
-4.9999999999999707
 20
8.7999999999999901
 30
0.0
 11
5.0000000000000284
 21
8.7999999999999901
 31
0.0
  0
LINE
  5
121
  8
DATA
  6
CONTINUOUS
 62
     7
 10
-4.9999999999999707
 20
7.2999999999999901
 30
0.0
 11
5.0000000000000284
 21
7.2999999999999901
 31
0.0
  0
LINE
  5
122
  8
DATA
  6
CONTINUOUS
 62
     7
 10
-4.9999999999999707
 20
5.7999999999999901
 30
0.0
 11
5.0000000000000284
 21
5.7999999999999901
 31
0.0
  0
LINE
  5
123
  8
DATA
  6
CONTINUOUS
 62
     7
 10
-4.9999999999999707
 20
4.2999999999999901
 30
0.0
 11
5.0000000000000284
 21
4.2999999999999901
 31
0.0
  0
LINE
  5
124
  8
DATA
  6
CONTINUOUS
 62
     7
 10
-4.9999999999999707
 20
2.7999999999999901
 30
0.0
 11
5.0000000000000284
 21
2.7999999999999901
 31
0.0
  0
LINE
  5
125
  8
DATA
  6
CONTINUOUS
 62
     7
 10
-4.9999999999999707
 20
1.2999999999999901
 30
0.0
 11
5.0000000000000284
 21
1.2999999999999901
 31
0.0
  0
LINE
  5
126
  8
DATA
  6
CONTINUOUS
 62
     7
 10
-4.9999999999999707
 20
-0.20000000000001
 30
0.0
 11
5.0000000000000284
 21
-0.20000000000001
 31
0.0
  0
LINE
  5
127
  8
DATA
  6
CONTINUOUS
 62
     7
 10
6.7500000000000284
 20
-82.0
 30
0.0
 11
6.7500000000000284
 21
-83.75
 31
0.0
  0
LINE
  5
128
  8
DATA
  6
CONTINUOUS
 62
     7
 10
6.7500000000000284
 20
-85.150000000000006
 30
0.0
 11
6.7500000000000284
 21
-86.84999999999998
 31
0.0
  0
LINE
  5
129
  8
DATA
  6
CONTINUOUS
 62
     7
 10
6.7500000000000284
 20
-88.250000000000014
 30
0.0
 11
6.7500000000000284
 21
-90.0
 31
0.0
  0
LINE
  5
12A
  8
DATA
  6
CONTINUOUS
 62
     7
 10
-6.7499999999999707
 20
-82.0
 30
0.0
 11
-6.7499999999999707
 21
-83.75
 31
0.0
  0
LINE
  5
12B
  8
DATA
  6
CONTINUOUS
 62
     7
 10
-6.7499999999999707
 20
-85.150000000000006
 30
0.0
 11
-6.7499999999999707
 21
-86.84999999999998
 31
0.0
  0
LINE
  5
12C
  8
DATA
  6
CONTINUOUS
 62
     7
 10
-6.7499999999999707
 20
-88.250000000000014
 30
0.0
 11
-6.7499999999999707
 21
-90.0
 31
0.0
  0
LINE
  5
12D
  8
DATA
  6
CONTINUOUS
 62
     7
 10
-73.249999999999972
 20
-82.0
 30
0.0
 11
-73.249999999999972
 21
-83.75
 31
0.0
  0
LINE
  5
12E
  8
DATA
  6
CONTINUOUS
 62
     7
 10
-73.249999999999972
 20
-85.150000000000006
 30
0.0
 11
-73.249999999999972
 21
-86.84999999999998
 31
0.0
  0
LINE
  5
12F
  8
DATA
  6
CONTINUOUS
 62
     7
 10
-73.249999999999972
 20
-88.250000000000014
 30
0.0
 11
-73.249999999999972
 21
-90.0
 31
0.0
  0
LINE
  5
130
  8
DATA
  6
CONTINUOUS
 62
     7
 10
-86.749999999999943
 20
-82.0
 30
0.0
 11
-86.749999999999943
 21
-83.75
 31
0.0
  0
LINE
  5
131
  8
DATA
  6
CONTINUOUS
 62
     7
 10
-86.749999999999943
 20
-85.150000000000006
 30
0.0
 11
-86.749999999999943
 21
-86.84999999999998
 31
0.0
  0
LINE
  5
132
  8
DATA
  6
CONTINUOUS
 62
     7
 10
-86.749999999999943
 20
-88.250000000000014
 30
0.0
 11
-86.749999999999943
 21
-90.0
 31
0.0
  0
LINE
  5
133
  8
DATA
  6
CONTINUOUS
 62
     7
 10
-1.2499999999999709
 20
-116.4572571043694
 30
0.0
 11
-1.2499999999999709
 21
-110.5390406780209
 31
0.0
  0
LINE
  5
134
  8
DATA
  6
CONTINUOUS
 62
     7
 10
1.250000000000028
 20
-110.5390406780209
 30
0.0
 11
1.250000000000028
 21
-116.4572571043694
 31
0.0
  0
LINE
  5
135
  8
DATA
  6
CONTINUOUS
 62
     7
 10
-1.2499999999999709
 20
-111.9981488911951
 30
0.0
 11
1.250000000000028
 21
-111.9981488911951
 31
0.0
  0
LINE
  5
136
  8
DATA
  6
CONTINUOUS
 62
     7
 10
4.3199999999999639
 20
-114.5133055136652
 30
0.0
 11
2.6699999999999871
 21
-114.5133055136652
 31
0.0
  0
LINE
  5
137
  8
DATA
  6
CONTINUOUS
 62
     7
 10
2.6699999999999871
 20
-114.5133055136652
 30
0.0
 11
2.250000000000028
 21
-115.0733055136652
 31
0.0
  0
LINE
  5
138
  8
DATA
  6
CONTINUOUS
 62
     7
 10
4.3199999999999639
 20
-111.9229922687251
 30
0.0
 11
2.250000000000028
 21
-111.9229922687251
 31
0.0
  0
ARC
  5
139
  8
DATA
  6
CONTINUOUS
 62
     7
 10
0.0000000000000284
 20
-111.7129687222949
 30
0.0
 40
1.714819831099804
 50
43.202433495993091
 51
136.79756650400819
  0
ARC
  5
13A
  8
DATA
  6
CONTINUOUS
 62
     7
 10
0.0000000000000284
 20
-115.2833290600953
 30
0.0
 40
1.714819831099845
 50
223.20243349599181
 51
316.79756650400691
  0
LINE
  5
13B
  8
DATA
  6
CONTINUOUS
 62
     7
 10
-1.2499999999999709
 20
-112.9981488911951
 30
0.0
 11
1.250000000000028
 21
-112.9981488911951
 31
0.0
  0
LINE
  5
13C
  8
DATA
  6
CONTINUOUS
 62
     7
 10
-1.2499999999999709
 20
-114.9981488911951
 30
0.0
 11
1.250000000000028
 21
-114.9981488911951
 31
0.0
  0
CIRCLE
  5
13D
  8
DATA
  6
CONTINUOUS
 62
     7
 10
0.0000000000000284
 20
-113.9981488911951
 30
0.0
 40
0.25
  0
TEXT
  5
13E
  8
DATA
 62
     7
 10
-4.5100801504629331
 20
-172.42711111111109
 30
0.0
 40
2.1717881944444439
  1
600 OHM
 41
0.7
 72
     1
 11
0.0000000000000284
 21
-172.42711111111109
 31
0.0
  0
TEXT
  5
13F
  8
DATA
 62
     7
 10
-4.510080150462934
 20
-176.85422222222221
 30
0.0
 40
2.1717881944444439
  1
MADE IN
 41
0.7
 72
     1
 11
0.0000000000000284
 21
-176.85422222222221
 31
0.0
  0
TEXT
  5
140
  8
DATA
 62
     7
 10
-4.8141304976851567
 20
-179.6764444444444
 30
0.0
 40
2.1717881944444439
  1
AUSTRIA
 41
0.7
 72
     1
 11
0.0000000000000284
 21
-179.6764444444444
 31
0.0
  0
TEXT
  5
141
  8
DATA
 62
     7
 10
-85.16885590277775
 20
-180.0
 30
0.0
 40
6.5153645833333318
  1
C E
 41
0.7
 72
     1
 11
-79.999999999999972
 21
-180.0
 31
0.0
  0
LINE
  5
142
  8
DATA
  6
CONTINUOUS
 62
     7
 10
69.600000000000023
 20
68.0
 30
0.0
 11
90.399999999999963
 21
68.0
 31
0.0
  0
LINE
  5
143
  8
DATA
  6
CONTINUOUS
 62
     7
 10
69.600000000000023
 20
68.0
 30
0.0
 11
69.600000000000023
 21
61.29999999999999
 31
0.0
  0
LINE
  5
144
  8
DATA
  6
CONTINUOUS
 62
     7
 10
69.600000000000023
 20
59.799999999999983
 30
0.0
 11
69.600000000000023
 21
58.299999999999983
 31
0.0
  0
LINE
  5
145
  8
DATA
  6
CONTINUOUS
 62
     7
 10
69.600000000000023
 20
56.799999999999983
 30
0.0
 11
69.600000000000023
 21
55.299999999999983
 31
0.0
  0
LINE
  5
146
  8
DATA
  6
CONTINUOUS
 62
     7
 10
69.600000000000023
 20
53.79999999999999
 30
0.0
 11
69.600000000000023
 21
52.299999999999983
 31
0.0
  0
LINE
  5
147
  8
DATA
  6
CONTINUOUS
 62
     7
 10
69.600000000000023
 20
50.799999999999983
 30
0.0
 11
69.600000000000023
 21
49.299999999999983
 31
0.0
  0
LINE
  5
148
  8
DATA
  6
CONTINUOUS
 62
     7
 10
69.600000000000023
 20
47.799999999999983
 30
0.0
 11
69.600000000000023
 21
46.299999999999983
 31
0.0
  0
LINE
  5
149
  8
DATA
  6
CONTINUOUS
 62
     7
 10
69.600000000000023
 20
44.799999999999983
 30
0.0
 11
69.600000000000023
 21
43.29999999999999
 31
0.0
  0
LINE
  5
14A
  8
DATA
  6
CONTINUOUS
 62
     7
 10
69.600000000000023
 20
41.799999999999983
 30
0.0
 11
69.600000000000023
 21
40.29999999999999
 31
0.0
  0
LINE
  5
14B
  8
DATA
  6
CONTINUOUS
 62
     7
 10
69.600000000000023
 20
38.79999999999999
 30
0.0
 11
69.600000000000023
 21
37.29999999999999
 31
0.0
  0
LINE
  5
14C
  8
DATA
  6
CONTINUOUS
 62
     7
 10
69.600000000000023
 20
35.79999999999999
 30
0.0
 11
69.600000000000023
 21
34.29999999999999
 31
0.0
  0
LINE
  5
14D
  8
DATA
  6
CONTINUOUS
 62
     7
 10
69.600000000000023
 20
32.79999999999999
 30
0.0
 11
69.600000000000023
 21
31.29999999999999
 31
0.0
  0
LINE
  5
14E
  8
DATA
  6
CONTINUOUS
 62
     7
 10
69.600000000000023
 20
29.79999999999999
 30
0.0
 11
69.600000000000023
 21
28.29999999999999
 31
0.0
  0
LINE
  5
14F
  8
DATA
  6
CONTINUOUS
 62
     7
 10
69.600000000000023
 20
26.79999999999999
 30
0.0
 11
69.600000000000023
 21
25.29999999999999
 31
0.0
  0
LINE
  5
150
  8
DATA
  6
CONTINUOUS
 62
     7
 10
69.600000000000023
 20
23.79999999999999
 30
0.0
 11
69.600000000000023
 21
22.29999999999999
 31
0.0
  0
LINE
  5
151
  8
DATA
  6
CONTINUOUS
 62
     7
 10
69.600000000000023
 20
20.79999999999999
 30
0.0
 11
69.600000000000023
 21
19.29999999999999
 31
0.0
  0
LINE
  5
152
  8
DATA
  6
CONTINUOUS
 62
     7
 10
69.600000000000023
 20
17.799999999999979
 30
0.0
 11
69.600000000000023
 21
16.29999999999999
 31
0.0
  0
LINE
  5
153
  8
DATA
  6
CONTINUOUS
 62
     7
 10
69.600000000000023
 20
14.79999999999999
 30
0.0
 11
69.600000000000023
 21
13.29999999999999
 31
0.0
  0
LINE
  5
154
  8
DATA
  6
CONTINUOUS
 62
     7
 10
69.600000000000023
 20
11.79999999999999
 30
0.0
 11
69.600000000000023
 21
10.29999999999999
 31
0.0
  0
LINE
  5
155
  8
DATA
  6
CONTINUOUS
 62
     7
 10
69.600000000000023
 20
8.7999999999999901
 30
0.0
 11
69.600000000000023
 21
7.2999999999999901
 31
0.0
  0
LINE
  5
156
  8
DATA
  6
CONTINUOUS
 62
     7
 10
69.600000000000023
 20
5.7999999999999901
 30
0.0
 11
69.600000000000023
 21
4.2999999999999901
 31
0.0
  0
LINE
  5
157
  8
DATA
  6
CONTINUOUS
 62
     7
 10
69.600000000000023
 20
2.7999999999999901
 30
0.0
 11
69.600000000000023
 21
1.2999999999999901
 31
0.0
  0
LINE
  5
158
  8
DATA
  6
CONTINUOUS
 62
     7
 10
69.600000000000023
 20
-0.20000000000001
 30
0.0
 11
69.600000000000023
 21
-8.2000000000000117
 31
0.0
  0
LINE
  5
159
  8
DATA
  6
CONTINUOUS
 62
     7
 10
69.600000000000023
 20
-9.7000000000000082
 30
0.0
 11
69.600000000000023
 21
-11.20000000000001
 31
0.0
  0
LINE
  5
15A
  8
DATA
  6
CONTINUOUS
 62
     7
 10
69.600000000000023
 20
-12.70000000000001
 30
0.0
 11
69.600000000000023
 21
-14.20000000000001
 31
0.0
  0
LINE
  5
15B
  8
DATA
  6
CONTINUOUS
 62
     7
 10
69.600000000000023
 20
-15.70000000000001
 30
0.0
 11
69.600000000000023
 21
-17.20000000000001
 31
0.0
  0
LINE
  5
15C
  8
DATA
  6
CONTINUOUS
 62
     7
 10
69.600000000000023
 20
-18.70000000000001
 30
0.0
 11
69.600000000000023
 21
-20.20000000000001
 31
0.0
  0
LINE
  5
15D
  8
DATA
  6
CONTINUOUS
 62
     7
 10
69.600000000000023
 20
-21.70000000000001
 30
0.0
 11
69.600000000000023
 21
-23.20000000000001
 31
0.0
  0
LINE
  5
15E
  8
DATA
  6
CONTINUOUS
 62
     7
 10
69.600000000000023
 20
-24.70000000000001
 30
0.0
 11
69.600000000000023
 21
-26.20000000000001
 31
0.0
  0
LINE
  5
15F
  8
DATA
  6
CONTINUOUS
 62
     7
 10
69.600000000000023
 20
-27.70000000000001
 30
0.0
 11
69.600000000000023
 21
-29.20000000000001
 31
0.0
  0
LINE
  5
160
  8
DATA
  6
CONTINUOUS
 62
     7
 10
69.600000000000023
 20
-30.70000000000001
 30
0.0
 11
69.600000000000023
 21
-32.20000000000001
 31
0.0
  0
LINE
  5
161
  8
DATA
  6
CONTINUOUS
 62
     7
 10
69.600000000000023
 20
-33.70000000000001
 30
0.0
 11
69.600000000000023
 21
-35.20000000000001
 31
0.0
  0
LINE
  5
162
  8
DATA
  6
CONTINUOUS
 62
     7
 10
69.600000000000023
 20
-36.70000000000001
 30
0.0
 11
69.600000000000023
 21
-38.20000000000001
 31
0.0
  0
LINE
  5
163
  8
DATA
  6
CONTINUOUS
 62
     7
 10
69.600000000000023
 20
-39.70000000000001
 30
0.0
 11
69.600000000000023
 21
-41.200000000000003
 31
0.0
  0
LINE
  5
164
  8
DATA
  6
CONTINUOUS
 62
     7
 10
69.600000000000023
 20
-42.70000000000001
 30
0.0
 11
69.600000000000023
 21
-44.200000000000003
 31
0.0
  0
LINE
  5
165
  8
DATA
  6
CONTINUOUS
 62
     7
 10
69.600000000000023
 20
-45.70000000000001
 30
0.0
 11
69.600000000000023
 21
-47.20000000000001
 31
0.0
  0
LINE
  5
166
  8
DATA
  6
CONTINUOUS
 62
     7
 10
69.600000000000023
 20
-48.700000000000003
 30
0.0
 11
69.600000000000023
 21
-50.20000000000001
 31
0.0
  0
LINE
  5
167
  8
DATA
  6
CONTINUOUS
 62
     7
 10
69.600000000000023
 20
-51.70000000000001
 30
0.0
 11
69.600000000000023
 21
-53.20000000000001
 31
0.0
  0
LINE
  5
168
  8
DATA
  6
CONTINUOUS
 62
     7
 10
69.600000000000023
 20
-54.70000000000001
 30
0.0
 11
69.600000000000023
 21
-56.200000000000003
 31
0.0
  0
LINE
  5
169
  8
DATA
  6
CONTINUOUS
 62
     7
 10
69.600000000000023
 20
-57.70000000000001
 30
0.0
 11
69.600000000000023
 21
-59.20000000000001
 31
0.0
  0
LINE
  5
16A
  8
DATA
  6
CONTINUOUS
 62
     7
 10
69.600000000000023
 20
-60.70000000000001
 30
0.0
 11
69.600000000000023
 21
-62.20000000000001
 31
0.0
  0
LINE
  5
16B
  8
DATA
  6
CONTINUOUS
 62
     7
 10
69.600000000000023
 20
-63.700000000000003
 30
0.0
 11
69.600000000000023
 21
-65.200000000000017
 31
0.0
  0
LINE
  5
16C
  8
DATA
  6
CONTINUOUS
 62
     7
 10
69.600000000000023
 20
-66.700000000000017
 30
0.0
 11
69.600000000000023
 21
-68.200000000000017
 31
0.0
  0
LINE
  5
16D
  8
DATA
  6
CONTINUOUS
 62
     7
 10
69.600000000000023
 20
-69.700000000000017
 30
0.0
 11
69.600000000000023
 21
-82.0
 31
0.0
  0
LINE
  5
16E
  8
DATA
  6
CONTINUOUS
 62
     7
 10
69.600000000000023
 20
-83.75
 30
0.0
 11
69.600000000000023
 21
-85.150000000000006
 31
0.0
  0
LINE
  5
16F
  8
DATA
  6
CONTINUOUS
 62
     7
 10
69.600000000000023
 20
-86.84999999999998
 30
0.0
 11
69.600000000000023
 21
-88.250000000000014
 31
0.0
  0
LINE
  5
170
  8
DATA
  6
CONTINUOUS
 62
     7
 10
69.600000000000023
 20
-90.0
 30
0.0
 11
69.600000000000023
 21
-185.0
 31
0.0
  0
LINE
  5
171
  8
DATA
  6
CONTINUOUS
 62
     7
 10
90.399999999999963
 20
68.0
 30
0.0
 11
90.399999999999963
 21
-82.0
 31
0.0
  0
LINE
  5
172
  8
DATA
  6
CONTINUOUS
 62
     7
 10
90.399999999999963
 20
-83.75
 30
0.0
 11
90.399999999999963
 21
-85.150000000000006
 31
0.0
  0
LINE
  5
173
  8
DATA
  6
CONTINUOUS
 62
     7
 10
90.399999999999963
 20
-86.84999999999998
 30
0.0
 11
90.399999999999963
 21
-88.250000000000014
 31
0.0
  0
LINE
  5
174
  8
DATA
  6
CONTINUOUS
 62
     7
 10
90.399999999999963
 20
-90.0
 30
0.0
 11
90.399999999999963
 21
-185.0
 31
0.0
  0
LINE
  5
175
  8
DATA
  6
CONTINUOUS
 62
     7
 10
69.600000000000023
 20
-185.0
 30
0.0
 11
90.399999999999963
 21
-185.0
 31
0.0
  0
LINE
  5
176
  8
DATA
  6
CONTINUOUS
 62
     7
 10
69.600000000000023
 20
-90.0
 30
0.0
 11
72.0
 21
-90.0
 31
0.0
  0
LINE
  5
177
  8
DATA
  6
CONTINUOUS
 62
     7
 10
88.0
 20
-90.0
 30
0.0
 11
90.399999999999963
 21
-90.0
 31
0.0
  0
LINE
  5
178
  8
DATA
  6
CONTINUOUS
 62
     7
 10
69.600000000000023
 20
-82.0
 30
0.0
 11
72.0
 21
-82.0
 31
0.0
  0
LINE
  5
179
  8
DATA
  6
CONTINUOUS
 62
     7
 10
88.0
 20
-82.0
 30
0.0
 11
90.399999999999963
 21
-82.0
 31
0.0
  0
LINE
  5
17A
  8
DATA
  6
CONTINUOUS
 62
     7
 10
69.600000000000023
 20
-88.250000000000014
 30
0.0
 11
72.0
 21
-88.250000000000014
 31
0.0
  0
LINE
  5
17B
  8
DATA
  6
CONTINUOUS
 62
     7
 10
88.0
 20
-88.250000000000014
 30
0.0
 11
90.399999999999963
 21
-88.250000000000014
 31
0.0
  0
LINE
  5
17C
  8
DATA
  6
CONTINUOUS
 62
     7
 10
69.600000000000023
 20
-83.75
 30
0.0
 11
72.0
 21
-83.75
 31
0.0
  0
LINE
  5
17D
  8
DATA
  6
CONTINUOUS
 62
     7
 10
88.0
 20
-83.75
 30
0.0
 11
90.399999999999963
 21
-83.75
 31
0.0
  0
LINE
  5
17E
  8
DATA
  6
CONTINUOUS
 62
     7
 10
69.600000000000023
 20
-85.150000000000006
 30
0.0
 11
72.0
 21
-85.150000000000006
 31
0.0
  0
LINE
  5
17F
  8
DATA
  6
CONTINUOUS
 62
     7
 10
88.0
 20
-85.150000000000006
 30
0.0
 11
90.399999999999963
 21
-85.150000000000006
 31
0.0
  0
LINE
  5
180
  8
DATA
  6
CONTINUOUS
 62
     7
 10
69.600000000000023
 20
-86.84999999999998
 30
0.0
 11
72.0
 21
-86.84999999999998
 31
0.0
  0
LINE
  5
181
  8
DATA
  6
CONTINUOUS
 62
     7
 10
88.0
 20
-86.84999999999998
 30
0.0
 11
90.399999999999963
 21
-86.84999999999998
 31
0.0
  0
LINE
  5
182
  8
DATA
  6
CONTINUOUS
 62
     7
 10
69.600000000000023
 20
64.299999999999983
 30
0.0
 11
90.399999999999963
 21
64.299999999999983
 31
0.0
  0
LINE
  5
183
  8
DATA
  6
CONTINUOUS
 62
     7
 10
70.600000000000023
 20
61.29999999999999
 30
0.0
 11
70.600000000000023
 21
59.799999999999983
 31
0.0
  0
LINE
  5
184
  8
DATA
  6
CONTINUOUS
 62
     7
 10
70.600000000000023
 20
58.299999999999983
 30
0.0
 11
70.600000000000023
 21
56.799999999999983
 31
0.0
  0
LINE
  5
185
  8
DATA
  6
CONTINUOUS
 62
     7
 10
70.600000000000023
 20
55.299999999999983
 30
0.0
 11
70.600000000000023
 21
53.79999999999999
 31
0.0
  0
LINE
  5
186
  8
DATA
  6
CONTINUOUS
 62
     7
 10
70.600000000000023
 20
52.299999999999983
 30
0.0
 11
70.600000000000023
 21
50.799999999999983
 31
0.0
  0
LINE
  5
187
  8
DATA
  6
CONTINUOUS
 62
     7
 10
70.600000000000023
 20
49.299999999999983
 30
0.0
 11
70.600000000000023
 21
47.799999999999983
 31
0.0
  0
LINE
  5
188
  8
DATA
  6
CONTINUOUS
 62
     7
 10
70.600000000000023
 20
46.299999999999983
 30
0.0
 11
70.600000000000023
 21
44.799999999999983
 31
0.0
  0
LINE
  5
189
  8
DATA
  6
CONTINUOUS
 62
     7
 10
70.600000000000023
 20
43.29999999999999
 30
0.0
 11
70.600000000000023
 21
41.799999999999983
 31
0.0
  0
LINE
  5
18A
  8
DATA
  6
CONTINUOUS
 62
     7
 10
70.600000000000023
 20
40.29999999999999
 30
0.0
 11
70.600000000000023
 21
38.79999999999999
 31
0.0
  0
LINE
  5
18B
  8
DATA
  6
CONTINUOUS
 62
     7
 10
70.600000000000023
 20
37.29999999999999
 30
0.0
 11
70.600000000000023
 21
35.79999999999999
 31
0.0
  0
LINE
  5
18C
  8
DATA
  6
CONTINUOUS
 62
     7
 10
70.600000000000023
 20
34.29999999999999
 30
0.0
 11
70.600000000000023
 21
32.79999999999999
 31
0.0
  0
LINE
  5
18D
  8
DATA
  6
CONTINUOUS
 62
     7
 10
70.600000000000023
 20
31.29999999999999
 30
0.0
 11
70.600000000000023
 21
29.79999999999999
 31
0.0
  0
LINE
  5
18E
  8
DATA
  6
CONTINUOUS
 62
     7
 10
70.600000000000023
 20
28.29999999999999
 30
0.0
 11
70.600000000000023
 21
26.79999999999999
 31
0.0
  0
LINE
  5
18F
  8
DATA
  6
CONTINUOUS
 62
     7
 10
70.600000000000023
 20
25.29999999999999
 30
0.0
 11
70.600000000000023
 21
23.79999999999999
 31
0.0
  0
LINE
  5
190
  8
DATA
  6
CONTINUOUS
 62
     7
 10
70.600000000000023
 20
22.29999999999999
 30
0.0
 11
70.600000000000023
 21
20.79999999999999
 31
0.0
  0
LINE
  5
191
  8
DATA
  6
CONTINUOUS
 62
     7
 10
70.600000000000023
 20
19.29999999999999
 30
0.0
 11
70.600000000000023
 21
17.799999999999979
 31
0.0
  0
LINE
  5
192
  8
DATA
  6
CONTINUOUS
 62
     7
 10
70.600000000000023
 20
16.29999999999999
 30
0.0
 11
70.600000000000023
 21
14.79999999999999
 31
0.0
  0
LINE
  5
193
  8
DATA
  6
CONTINUOUS
 62
     7
 10
70.600000000000023
 20
13.29999999999999
 30
0.0
 11
70.600000000000023
 21
11.79999999999999
 31
0.0
  0
LINE
  5
194
  8
DATA
  6
CONTINUOUS
 62
     7
 10
70.600000000000023
 20
10.29999999999999
 30
0.0
 11
70.600000000000023
 21
8.7999999999999901
 31
0.0
  0
LINE
  5
195
  8
DATA
  6
CONTINUOUS
 62
     7
 10
70.600000000000023
 20
7.2999999999999901
 30
0.0
 11
70.600000000000023
 21
5.7999999999999901
 31
0.0
  0
LINE
  5
196
  8
DATA
  6
CONTINUOUS
 62
     7
 10
70.600000000000023
 20
4.2999999999999901
 30
0.0
 11
70.600000000000023
 21
2.7999999999999901
 31
0.0
  0
LINE
  5
197
  8
DATA
  6
CONTINUOUS
 62
     7
 10
70.600000000000023
 20
1.2999999999999901
 30
0.0
 11
70.600000000000023
 21
-0.20000000000001
 31
0.0
  0
LINE
  5
198
  8
DATA
  6
CONTINUOUS
 62
     7
 10
70.600000000000023
 20
-82.0
 30
0.0
 11
70.600000000000023
 21
-83.75
 31
0.0
  0
LINE
  5
199
  8
DATA
  6
CONTINUOUS
 62
     7
 10
70.600000000000023
 20
-85.150000000000006
 30
0.0
 11
70.600000000000023
 21
-86.84999999999998
 31
0.0
  0
LINE
  5
19A
  8
DATA
  6
CONTINUOUS
 62
     7
 10
70.600000000000023
 20
-88.250000000000014
 30
0.0
 11
70.600000000000023
 21
-90.0
 31
0.0
  0
LINE
  5
19B
  8
DATA
  6
CONTINUOUS
 62
     7
 10
89.399999999999949
 20
-82.0
 30
0.0
 11
89.399999999999949
 21
-83.75
 31
0.0
  0
LINE
  5
19C
  8
DATA
  6
CONTINUOUS
 62
     7
 10
89.399999999999949
 20
-85.150000000000006
 30
0.0
 11
89.399999999999949
 21
-86.84999999999998
 31
0.0
  0
LINE
  5
19D
  8
DATA
  6
CONTINUOUS
 62
     7
 10
89.399999999999949
 20
-88.250000000000014
 30
0.0
 11
89.399999999999949
 21
-90.0
 31
0.0
  0
LINE
  5
19E
  8
DATA
  6
CONTINUOUS
 62
     7
 10
72.0
 20
-82.0
 30
0.0
 11
72.0
 21
-83.75
 31
0.0
  0
LINE
  5
19F
  8
DATA
  6
CONTINUOUS
 62
     7
 10
72.0
 20
-85.150000000000006
 30
0.0
 11
72.0
 21
-86.84999999999998
 31
0.0
  0
LINE
  5
1A0
  8
DATA
  6
CONTINUOUS
 62
     7
 10
72.0
 20
-88.250000000000014
 30
0.0
 11
72.0
 21
-90.0
 31
0.0
  0
LINE
  5
1A1
  8
DATA
  6
CONTINUOUS
 62
     7
 10
88.0
 20
-82.0
 30
0.0
 11
88.0
 21
-83.75
 31
0.0
  0
LINE
  5
1A2
  8
DATA
  6
CONTINUOUS
 62
     7
 10
88.0
 20
-85.150000000000006
 30
0.0
 11
88.0
 21
-86.84999999999998
 31
0.0
  0
LINE
  5
1A3
  8
DATA
  6
CONTINUOUS
 62
     7
 10
88.0
 20
-88.250000000000014
 30
0.0
 11
88.0
 21
-90.0
 31
0.0
  0
LINE
  5
1A4
  8
DATA
  6
CONTINUOUS
 62
     7
 10
69.600000000000023
 20
62.299999999999983
 30
0.0
 11
71.600000000000023
 21
62.299999999999983
 31
0.0
  0
LINE
  5
1A5
  8
DATA
  6
CONTINUOUS
 62
     7
 10
71.600000000000023
 20
-1.2000000000000091
 30
0.0
 11
69.600000000000023
 21
-1.2000000000000091
 31
0.0
  0
LINE
  5
1A6
  8
DATA
  6
CONTINUOUS
 62
     7
 10
69.600000000000023
 20
61.29999999999999
 30
0.0
 11
72.0
 21
61.29999999999999
 31
0.0
  0
LINE
  5
1A7
  8
DATA
  6
CONTINUOUS
 62
     7
 10
69.600000000000023
 20
59.799999999999983
 30
0.0
 11
72.0
 21
59.799999999999983
 31
0.0
  0
LINE
  5
1A8
  8
DATA
  6
CONTINUOUS
 62
     7
 10
69.600000000000023
 20
58.299999999999983
 30
0.0
 11
72.0
 21
58.299999999999983
 31
0.0
  0
LINE
  5
1A9
  8
DATA
  6
CONTINUOUS
 62
     7
 10
69.600000000000023
 20
56.799999999999983
 30
0.0
 11
72.0
 21
56.799999999999983
 31
0.0
  0
LINE
  5
1AA
  8
DATA
  6
CONTINUOUS
 62
     7
 10
69.600000000000023
 20
55.299999999999983
 30
0.0
 11
72.0
 21
55.299999999999983
 31
0.0
  0
LINE
  5
1AB
  8
DATA
  6
CONTINUOUS
 62
     7
 10
69.600000000000023
 20
53.79999999999999
 30
0.0
 11
72.0
 21
53.79999999999999
 31
0.0
  0
LINE
  5
1AC
  8
DATA
  6
CONTINUOUS
 62
     7
 10
69.600000000000023
 20
52.299999999999983
 30
0.0
 11
72.0
 21
52.299999999999983
 31
0.0
  0
LINE
  5
1AD
  8
DATA
  6
CONTINUOUS
 62
     7
 10
69.600000000000023
 20
50.799999999999983
 30
0.0
 11
72.0
 21
50.799999999999983
 31
0.0
  0
LINE
  5
1AE
  8
DATA
  6
CONTINUOUS
 62
     7
 10
69.600000000000023
 20
49.299999999999983
 30
0.0
 11
72.0
 21
49.299999999999983
 31
0.0
  0
LINE
  5
1AF
  8
DATA
  6
CONTINUOUS
 62
     7
 10
69.600000000000023
 20
47.799999999999983
 30
0.0
 11
72.0
 21
47.799999999999983
 31
0.0
  0
LINE
  5
1B0
  8
DATA
  6
CONTINUOUS
 62
     7
 10
69.600000000000023
 20
46.299999999999983
 30
0.0
 11
72.0
 21
46.299999999999983
 31
0.0
  0
LINE
  5
1B1
  8
DATA
  6
CONTINUOUS
 62
     7
 10
69.600000000000023
 20
44.799999999999983
 30
0.0
 11
72.0
 21
44.799999999999983
 31
0.0
  0
LINE
  5
1B2
  8
DATA
  6
CONTINUOUS
 62
     7
 10
69.600000000000023
 20
43.29999999999999
 30
0.0
 11
72.0
 21
43.29999999999999
 31
0.0
  0
LINE
  5
1B3
  8
DATA
  6
CONTINUOUS
 62
     7
 10
69.600000000000023
 20
41.799999999999983
 30
0.0
 11
72.0
 21
41.799999999999983
 31
0.0
  0
LINE
  5
1B4
  8
DATA
  6
CONTINUOUS
 62
     7
 10
69.600000000000023
 20
40.29999999999999
 30
0.0
 11
72.0
 21
40.29999999999999
 31
0.0
  0
LINE
  5
1B5
  8
DATA
  6
CONTINUOUS
 62
     7
 10
69.600000000000023
 20
38.79999999999999
 30
0.0
 11
72.0
 21
38.79999999999999
 31
0.0
  0
LINE
  5
1B6
  8
DATA
  6
CONTINUOUS
 62
     7
 10
69.600000000000023
 20
37.29999999999999
 30
0.0
 11
72.0
 21
37.29999999999999
 31
0.0
  0
LINE
  5
1B7
  8
DATA
  6
CONTINUOUS
 62
     7
 10
69.600000000000023
 20
35.79999999999999
 30
0.0
 11
72.0
 21
35.79999999999999
 31
0.0
  0
LINE
  5
1B8
  8
DATA
  6
CONTINUOUS
 62
     7
 10
69.600000000000023
 20
34.29999999999999
 30
0.0
 11
72.0
 21
34.29999999999999
 31
0.0
  0
LINE
  5
1B9
  8
DATA
  6
CONTINUOUS
 62
     7
 10
69.600000000000023
 20
32.79999999999999
 30
0.0
 11
72.0
 21
32.79999999999999
 31
0.0
  0
LINE
  5
1BA
  8
DATA
  6
CONTINUOUS
 62
     7
 10
69.600000000000023
 20
31.29999999999999
 30
0.0
 11
72.0
 21
31.29999999999999
 31
0.0
  0
LINE
  5
1BB
  8
DATA
  6
CONTINUOUS
 62
     7
 10
69.600000000000023
 20
29.79999999999999
 30
0.0
 11
72.0
 21
29.79999999999999
 31
0.0
  0
LINE
  5
1BC
  8
DATA
  6
CONTINUOUS
 62
     7
 10
69.600000000000023
 20
28.29999999999999
 30
0.0
 11
72.0
 21
28.29999999999999
 31
0.0
  0
LINE
  5
1BD
  8
DATA
  6
CONTINUOUS
 62
     7
 10
69.600000000000023
 20
26.79999999999999
 30
0.0
 11
72.0
 21
26.79999999999999
 31
0.0
  0
LINE
  5
1BE
  8
DATA
  6
CONTINUOUS
 62
     7
 10
69.600000000000023
 20
25.29999999999999
 30
0.0
 11
72.0
 21
25.29999999999999
 31
0.0
  0
LINE
  5
1BF
  8
DATA
  6
CONTINUOUS
 62
     7
 10
69.600000000000023
 20
23.79999999999999
 30
0.0
 11
72.0
 21
23.79999999999999
 31
0.0
  0
LINE
  5
1C0
  8
DATA
  6
CONTINUOUS
 62
     7
 10
69.600000000000023
 20
22.29999999999999
 30
0.0
 11
72.0
 21
22.29999999999999
 31
0.0
  0
LINE
  5
1C1
  8
DATA
  6
CONTINUOUS
 62
     7
 10
69.600000000000023
 20
20.79999999999999
 30
0.0
 11
72.0
 21
20.79999999999999
 31
0.0
  0
LINE
  5
1C2
  8
DATA
  6
CONTINUOUS
 62
     7
 10
69.600000000000023
 20
19.29999999999999
 30
0.0
 11
72.0
 21
19.29999999999999
 31
0.0
  0
LINE
  5
1C3
  8
DATA
  6
CONTINUOUS
 62
     7
 10
69.600000000000023
 20
17.799999999999979
 30
0.0
 11
72.0
 21
17.799999999999979
 31
0.0
  0
LINE
  5
1C4
  8
DATA
  6
CONTINUOUS
 62
     7
 10
69.600000000000023
 20
16.29999999999999
 30
0.0
 11
72.0
 21
16.29999999999999
 31
0.0
  0
LINE
  5
1C5
  8
DATA
  6
CONTINUOUS
 62
     7
 10
69.600000000000023
 20
14.79999999999999
 30
0.0
 11
72.0
 21
14.79999999999999
 31
0.0
  0
LINE
  5
1C6
  8
DATA
  6
CONTINUOUS
 62
     7
 10
69.600000000000023
 20
13.29999999999999
 30
0.0
 11
72.0
 21
13.29999999999999
 31
0.0
  0
LINE
  5
1C7
  8
DATA
  6
CONTINUOUS
 62
     7
 10
69.600000000000023
 20
11.79999999999999
 30
0.0
 11
72.0
 21
11.79999999999999
 31
0.0
  0
LINE
  5
1C8
  8
DATA
  6
CONTINUOUS
 62
     7
 10
69.600000000000023
 20
10.29999999999999
 30
0.0
 11
72.0
 21
10.29999999999999
 31
0.0
  0
LINE
  5
1C9
  8
DATA
  6
CONTINUOUS
 62
     7
 10
69.600000000000023
 20
8.7999999999999901
 30
0.0
 11
72.0
 21
8.7999999999999901
 31
0.0
  0
LINE
  5
1CA
  8
DATA
  6
CONTINUOUS
 62
     7
 10
69.600000000000023
 20
7.2999999999999901
 30
0.0
 11
72.0
 21
7.2999999999999901
 31
0.0
  0
LINE
  5
1CB
  8
DATA
  6
CONTINUOUS
 62
     7
 10
69.600000000000023
 20
5.7999999999999901
 30
0.0
 11
72.0
 21
5.7999999999999901
 31
0.0
  0
LINE
  5
1CC
  8
DATA
  6
CONTINUOUS
 62
     7
 10
69.600000000000023
 20
4.2999999999999901
 30
0.0
 11
72.0
 21
4.2999999999999901
 31
0.0
  0
LINE
  5
1CD
  8
DATA
  6
CONTINUOUS
 62
     7
 10
69.600000000000023
 20
2.7999999999999901
 30
0.0
 11
72.0
 21
2.7999999999999901
 31
0.0
  0
LINE
  5
1CE
  8
DATA
  6
CONTINUOUS
 62
     7
 10
69.600000000000023
 20
1.2999999999999901
 30
0.0
 11
72.0
 21
1.2999999999999901
 31
0.0
  0
LINE
  5
1CF
  8
DATA
  6
CONTINUOUS
 62
     7
 10
69.600000000000023
 20
-0.20000000000001
 30
0.0
 11
72.0
 21
-0.20000000000001
 31
0.0
  0
LINE
  5
1D0
  8
DATA
  6
CONTINUOUS
 62
     7
 10
72.0
 20
-0.20000000000001
 30
0.0
 11
72.0
 21
1.2999999999999901
 31
0.0
  0
LINE
  5
1D1
  8
DATA
  6
CONTINUOUS
 62
     7
 10
72.0
 20
2.7999999999999901
 30
0.0
 11
72.0
 21
4.2999999999999901
 31
0.0
  0
LINE
  5
1D2
  8
DATA
  6
CONTINUOUS
 62
     7
 10
72.0
 20
5.7999999999999901
 30
0.0
 11
72.0
 21
7.2999999999999901
 31
0.0
  0
LINE
  5
1D3
  8
DATA
  6
CONTINUOUS
 62
     7
 10
72.0
 20
8.7999999999999901
 30
0.0
 11
72.0
 21
10.29999999999999
 31
0.0
  0
LINE
  5
1D4
  8
DATA
  6
CONTINUOUS
 62
     7
 10
72.0
 20
11.79999999999999
 30
0.0
 11
72.0
 21
13.29999999999999
 31
0.0
  0
LINE
  5
1D5
  8
DATA
  6
CONTINUOUS
 62
     7
 10
72.0
 20
14.79999999999999
 30
0.0
 11
72.0
 21
16.29999999999999
 31
0.0
  0
LINE
  5
1D6
  8
DATA
  6
CONTINUOUS
 62
     7
 10
72.0
 20
17.799999999999979
 30
0.0
 11
72.0
 21
19.29999999999999
 31
0.0
  0
LINE
  5
1D7
  8
DATA
  6
CONTINUOUS
 62
     7
 10
72.0
 20
20.79999999999999
 30
0.0
 11
72.0
 21
22.29999999999999
 31
0.0
  0
LINE
  5
1D8
  8
DATA
  6
CONTINUOUS
 62
     7
 10
72.0
 20
23.79999999999999
 30
0.0
 11
72.0
 21
25.29999999999999
 31
0.0
  0
LINE
  5
1D9
  8
DATA
  6
CONTINUOUS
 62
     7
 10
72.0
 20
26.79999999999999
 30
0.0
 11
72.0
 21
28.29999999999999
 31
0.0
  0
LINE
  5
1DA
  8
DATA
  6
CONTINUOUS
 62
     7
 10
72.0
 20
29.79999999999999
 30
0.0
 11
72.0
 21
31.29999999999999
 31
0.0
  0
LINE
  5
1DB
  8
DATA
  6
CONTINUOUS
 62
     7
 10
72.0
 20
32.79999999999999
 30
0.0
 11
72.0
 21
34.29999999999999
 31
0.0
  0
LINE
  5
1DC
  8
DATA
  6
CONTINUOUS
 62
     7
 10
72.0
 20
35.79999999999999
 30
0.0
 11
72.0
 21
37.29999999999999
 31
0.0
  0
LINE
  5
1DD
  8
DATA
  6
CONTINUOUS
 62
     7
 10
72.0
 20
38.79999999999999
 30
0.0
 11
72.0
 21
40.29999999999999
 31
0.0
  0
LINE
  5
1DE
  8
DATA
  6
CONTINUOUS
 62
     7
 10
72.0
 20
41.799999999999983
 30
0.0
 11
72.0
 21
43.29999999999999
 31
0.0
  0
LINE
  5
1DF
  8
DATA
  6
CONTINUOUS
 62
     7
 10
72.0
 20
44.799999999999983
 30
0.0
 11
72.0
 21
46.300000000000011
 31
0.0
  0
LINE
  5
1E0
  8
DATA
  6
CONTINUOUS
 62
     7
 10
72.0
 20
47.800000000000011
 30
0.0
 11
72.0
 21
49.300000000000011
 31
0.0
  0
LINE
  5
1E1
  8
DATA
  6
CONTINUOUS
 62
     7
 10
72.0
 20
50.800000000000011
 30
0.0
 11
72.0
 21
52.300000000000011
 31
0.0
  0
LINE
  5
1E2
  8
DATA
  6
CONTINUOUS
 62
     7
 10
72.0
 20
53.800000000000011
 30
0.0
 11
72.0
 21
55.300000000000011
 31
0.0
  0
LINE
  5
1E3
  8
DATA
  6
CONTINUOUS
 62
     7
 10
72.0
 20
56.800000000000011
 30
0.0
 11
72.0
 21
58.300000000000011
 31
0.0
  0
LINE
  5
1E4
  8
DATA
  6
CONTINUOUS
 62
     7
 10
72.0
 20
59.800000000000011
 30
0.0
 11
72.0
 21
61.29999999999999
 31
0.0
  0
LINE
  5
1E5
  8
DATA
  6
CONTINUOUS
 62
     7
 10
72.600000000000023
 20
61.29999999999999
 30
0.0
 11
72.600000000000023
 21
-0.20000000000001
 31
0.0
  0
LINE
  5
1E6
  8
DATA
  6
CONTINUOUS
 62
     7
 10
69.600000000000023
 20
-9.7000000000000082
 30
0.0
 11
69.600000000000023
 21
-11.20000000000001
 31
0.0
  0
LINE
  5
1E7
  8
DATA
  6
CONTINUOUS
 62
     7
 10
69.600000000000023
 20
-12.70000000000001
 30
0.0
 11
69.600000000000023
 21
-14.20000000000001
 31
0.0
  0
LINE
  5
1E8
  8
DATA
  6
CONTINUOUS
 62
     7
 10
69.600000000000023
 20
-15.70000000000001
 30
0.0
 11
69.600000000000023
 21
-17.20000000000001
 31
0.0
  0
LINE
  5
1E9
  8
DATA
  6
CONTINUOUS
 62
     7
 10
69.600000000000023
 20
-18.70000000000001
 30
0.0
 11
69.600000000000023
 21
-20.20000000000001
 31
0.0
  0
LINE
  5
1EA
  8
DATA
  6
CONTINUOUS
 62
     7
 10
69.600000000000023
 20
-21.70000000000001
 30
0.0
 11
69.600000000000023
 21
-23.20000000000001
 31
0.0
  0
LINE
  5
1EB
  8
DATA
  6
CONTINUOUS
 62
     7
 10
69.600000000000023
 20
-24.70000000000001
 30
0.0
 11
69.600000000000023
 21
-26.20000000000001
 31
0.0
  0
LINE
  5
1EC
  8
DATA
  6
CONTINUOUS
 62
     7
 10
69.600000000000023
 20
-27.70000000000001
 30
0.0
 11
69.600000000000023
 21
-29.20000000000001
 31
0.0
  0
LINE
  5
1ED
  8
DATA
  6
CONTINUOUS
 62
     7
 10
69.600000000000023
 20
-30.70000000000001
 30
0.0
 11
69.600000000000023
 21
-32.20000000000001
 31
0.0
  0
LINE
  5
1EE
  8
DATA
  6
CONTINUOUS
 62
     7
 10
69.600000000000023
 20
-33.70000000000001
 30
0.0
 11
69.600000000000023
 21
-35.20000000000001
 31
0.0
  0
LINE
  5
1EF
  8
DATA
  6
CONTINUOUS
 62
     7
 10
69.600000000000023
 20
-36.70000000000001
 30
0.0
 11
69.600000000000023
 21
-38.20000000000001
 31
0.0
  0
LINE
  5
1F0
  8
DATA
  6
CONTINUOUS
 62
     7
 10
69.600000000000023
 20
-39.70000000000001
 30
0.0
 11
69.600000000000023
 21
-41.200000000000003
 31
0.0
  0
LINE
  5
1F1
  8
DATA
  6
CONTINUOUS
 62
     7
 10
69.600000000000023
 20
-42.70000000000001
 30
0.0
 11
69.600000000000023
 21
-44.200000000000003
 31
0.0
  0
LINE
  5
1F2
  8
DATA
  6
CONTINUOUS
 62
     7
 10
69.600000000000023
 20
-45.70000000000001
 30
0.0
 11
69.600000000000023
 21
-47.20000000000001
 31
0.0
  0
LINE
  5
1F3
  8
DATA
  6
CONTINUOUS
 62
     7
 10
69.600000000000023
 20
-48.700000000000003
 30
0.0
 11
69.600000000000023
 21
-50.20000000000001
 31
0.0
  0
LINE
  5
1F4
  8
DATA
  6
CONTINUOUS
 62
     7
 10
69.600000000000023
 20
-51.70000000000001
 30
0.0
 11
69.600000000000023
 21
-53.20000000000001
 31
0.0
  0
LINE
  5
1F5
  8
DATA
  6
CONTINUOUS
 62
     7
 10
69.600000000000023
 20
-54.70000000000001
 30
0.0
 11
69.600000000000023
 21
-56.200000000000003
 31
0.0
  0
LINE
  5
1F6
  8
DATA
  6
CONTINUOUS
 62
     7
 10
69.600000000000023
 20
-57.70000000000001
 30
0.0
 11
69.600000000000023
 21
-59.20000000000001
 31
0.0
  0
LINE
  5
1F7
  8
DATA
  6
CONTINUOUS
 62
     7
 10
69.600000000000023
 20
-60.70000000000001
 30
0.0
 11
69.600000000000023
 21
-62.20000000000001
 31
0.0
  0
LINE
  5
1F8
  8
DATA
  6
CONTINUOUS
 62
     7
 10
69.600000000000023
 20
-63.700000000000003
 30
0.0
 11
69.600000000000023
 21
-65.200000000000017
 31
0.0
  0
LINE
  5
1F9
  8
DATA
  6
CONTINUOUS
 62
     7
 10
69.600000000000023
 20
-66.700000000000017
 30
0.0
 11
69.600000000000023
 21
-68.200000000000017
 31
0.0
  0
LINE
  5
1FA
  8
DATA
  6
CONTINUOUS
 62
     7
 10
70.600000000000023
 20
-8.2000000000000117
 30
0.0
 11
70.600000000000023
 21
-9.7000000000000082
 31
0.0
  0
LINE
  5
1FB
  8
DATA
  6
CONTINUOUS
 62
     7
 10
70.600000000000023
 20
-11.20000000000001
 30
0.0
 11
70.600000000000023
 21
-12.70000000000001
 31
0.0
  0
LINE
  5
1FC
  8
DATA
  6
CONTINUOUS
 62
     7
 10
70.600000000000023
 20
-14.20000000000001
 30
0.0
 11
70.600000000000023
 21
-15.70000000000001
 31
0.0
  0
LINE
  5
1FD
  8
DATA
  6
CONTINUOUS
 62
     7
 10
70.600000000000023
 20
-17.20000000000001
 30
0.0
 11
70.600000000000023
 21
-18.70000000000001
 31
0.0
  0
LINE
  5
1FE
  8
DATA
  6
CONTINUOUS
 62
     7
 10
70.600000000000023
 20
-20.20000000000001
 30
0.0
 11
70.600000000000023
 21
-21.70000000000001
 31
0.0
  0
LINE
  5
1FF
  8
DATA
  6
CONTINUOUS
 62
     7
 10
70.600000000000023
 20
-23.20000000000001
 30
0.0
 11
70.600000000000023
 21
-24.70000000000001
 31
0.0
  0
LINE
  5
200
  8
DATA
  6
CONTINUOUS
 62
     7
 10
70.600000000000023
 20
-26.20000000000001
 30
0.0
 11
70.600000000000023
 21
-27.70000000000001
 31
0.0
  0
LINE
  5
201
  8
DATA
  6
CONTINUOUS
 62
     7
 10
70.600000000000023
 20
-29.20000000000001
 30
0.0
 11
70.600000000000023
 21
-30.70000000000001
 31
0.0
  0
LINE
  5
202
  8
DATA
  6
CONTINUOUS
 62
     7
 10
70.600000000000023
 20
-32.20000000000001
 30
0.0
 11
70.600000000000023
 21
-33.70000000000001
 31
0.0
  0
LINE
  5
203
  8
DATA
  6
CONTINUOUS
 62
     7
 10
70.600000000000023
 20
-35.20000000000001
 30
0.0
 11
70.600000000000023
 21
-36.70000000000001
 31
0.0
  0
LINE
  5
204
  8
DATA
  6
CONTINUOUS
 62
     7
 10
70.600000000000023
 20
-38.20000000000001
 30
0.0
 11
70.600000000000023
 21
-39.70000000000001
 31
0.0
  0
LINE
  5
205
  8
DATA
  6
CONTINUOUS
 62
     7
 10
70.600000000000023
 20
-41.200000000000003
 30
0.0
 11
70.600000000000023
 21
-42.70000000000001
 31
0.0
  0
LINE
  5
206
  8
DATA
  6
CONTINUOUS
 62
     7
 10
70.600000000000023
 20
-44.200000000000003
 30
0.0
 11
70.600000000000023
 21
-45.70000000000001
 31
0.0
  0
LINE
  5
207
  8
DATA
  6
CONTINUOUS
 62
     7
 10
70.600000000000023
 20
-47.20000000000001
 30
0.0
 11
70.600000000000023
 21
-48.700000000000003
 31
0.0
  0
LINE
  5
208
  8
DATA
  6
CONTINUOUS
 62
     7
 10
70.600000000000023
 20
-50.20000000000001
 30
0.0
 11
70.600000000000023
 21
-51.70000000000001
 31
0.0
  0
LINE
  5
209
  8
DATA
  6
CONTINUOUS
 62
     7
 10
70.600000000000023
 20
-53.20000000000001
 30
0.0
 11
70.600000000000023
 21
-54.70000000000001
 31
0.0
  0
LINE
  5
20A
  8
DATA
  6
CONTINUOUS
 62
     7
 10
70.600000000000023
 20
-56.200000000000003
 30
0.0
 11
70.600000000000023
 21
-57.70000000000001
 31
0.0
  0
LINE
  5
20B
  8
DATA
  6
CONTINUOUS
 62
     7
 10
70.600000000000023
 20
-59.20000000000001
 30
0.0
 11
70.600000000000023
 21
-60.70000000000001
 31
0.0
  0
LINE
  5
20C
  8
DATA
  6
CONTINUOUS
 62
     7
 10
70.600000000000023
 20
-62.20000000000001
 30
0.0
 11
70.600000000000023
 21
-63.700000000000003
 31
0.0
  0
LINE
  5
20D
  8
DATA
  6
CONTINUOUS
 62
     7
 10
70.600000000000023
 20
-65.200000000000017
 30
0.0
 11
70.600000000000023
 21
-66.700000000000017
 31
0.0
  0
LINE
  5
20E
  8
DATA
  6
CONTINUOUS
 62
     7
 10
70.600000000000023
 20
-68.200000000000017
 30
0.0
 11
70.600000000000023
 21
-69.700000000000017
 31
0.0
  0
LINE
  5
20F
  8
DATA
  6
CONTINUOUS
 62
     7
 10
69.600000000000023
 20
-7.2000000000000091
 30
0.0
 11
71.600000000000023
 21
-7.2000000000000091
 31
0.0
  0
LINE
  5
210
  8
DATA
  6
CONTINUOUS
 62
     7
 10
71.600000000000023
 20
-70.700000000000017
 30
0.0
 11
69.600000000000023
 21
-70.700000000000017
 31
0.0
  0
LINE
  5
211
  8
DATA
  6
CONTINUOUS
 62
     7
 10
69.600000000000023
 20
-8.2000000000000117
 30
0.0
 11
72.0
 21
-8.2000000000000117
 31
0.0
  0
LINE
  5
212
  8
DATA
  6
CONTINUOUS
 62
     7
 10
69.600000000000023
 20
-9.7000000000000082
 30
0.0
 11
72.0
 21
-9.7000000000000082
 31
0.0
  0
LINE
  5
213
  8
DATA
  6
CONTINUOUS
 62
     7
 10
69.600000000000023
 20
-11.20000000000001
 30
0.0
 11
72.0
 21
-11.20000000000001
 31
0.0
  0
LINE
  5
214
  8
DATA
  6
CONTINUOUS
 62
     7
 10
69.600000000000023
 20
-12.70000000000001
 30
0.0
 11
72.0
 21
-12.70000000000001
 31
0.0
  0
LINE
  5
215
  8
DATA
  6
CONTINUOUS
 62
     7
 10
69.600000000000023
 20
-14.20000000000001
 30
0.0
 11
72.0
 21
-14.20000000000001
 31
0.0
  0
LINE
  5
216
  8
DATA
  6
CONTINUOUS
 62
     7
 10
69.600000000000023
 20
-15.70000000000001
 30
0.0
 11
72.0
 21
-15.70000000000001
 31
0.0
  0
LINE
  5
217
  8
DATA
  6
CONTINUOUS
 62
     7
 10
69.600000000000023
 20
-17.20000000000001
 30
0.0
 11
72.0
 21
-17.20000000000001
 31
0.0
  0
LINE
  5
218
  8
DATA
  6
CONTINUOUS
 62
     7
 10
69.600000000000023
 20
-18.70000000000001
 30
0.0
 11
72.0
 21
-18.70000000000001
 31
0.0
  0
LINE
  5
219
  8
DATA
  6
CONTINUOUS
 62
     7
 10
69.600000000000023
 20
-20.20000000000001
 30
0.0
 11
72.0
 21
-20.20000000000001
 31
0.0
  0
LINE
  5
21A
  8
DATA
  6
CONTINUOUS
 62
     7
 10
69.600000000000023
 20
-21.70000000000001
 30
0.0
 11
72.0
 21
-21.70000000000001
 31
0.0
  0
LINE
  5
21B
  8
DATA
  6
CONTINUOUS
 62
     7
 10
69.600000000000023
 20
-23.20000000000001
 30
0.0
 11
72.0
 21
-23.20000000000001
 31
0.0
  0
LINE
  5
21C
  8
DATA
  6
CONTINUOUS
 62
     7
 10
69.600000000000023
 20
-24.70000000000001
 30
0.0
 11
72.0
 21
-24.70000000000001
 31
0.0
  0
LINE
  5
21D
  8
DATA
  6
CONTINUOUS
 62
     7
 10
69.600000000000023
 20
-26.20000000000001
 30
0.0
 11
72.0
 21
-26.20000000000001
 31
0.0
  0
LINE
  5
21E
  8
DATA
  6
CONTINUOUS
 62
     7
 10
69.600000000000023
 20
-27.70000000000001
 30
0.0
 11
72.0
 21
-27.70000000000001
 31
0.0
  0
LINE
  5
21F
  8
DATA
  6
CONTINUOUS
 62
     7
 10
69.600000000000023
 20
-29.20000000000001
 30
0.0
 11
72.0
 21
-29.20000000000001
 31
0.0
  0
LINE
  5
220
  8
DATA
  6
CONTINUOUS
 62
     7
 10
69.600000000000023
 20
-30.70000000000001
 30
0.0
 11
72.0
 21
-30.70000000000001
 31
0.0
  0
LINE
  5
221
  8
DATA
  6
CONTINUOUS
 62
     7
 10
69.600000000000023
 20
-32.20000000000001
 30
0.0
 11
72.0
 21
-32.20000000000001
 31
0.0
  0
LINE
  5
222
  8
DATA
  6
CONTINUOUS
 62
     7
 10
69.600000000000023
 20
-33.70000000000001
 30
0.0
 11
72.0
 21
-33.70000000000001
 31
0.0
  0
LINE
  5
223
  8
DATA
  6
CONTINUOUS
 62
     7
 10
69.600000000000023
 20
-35.20000000000001
 30
0.0
 11
72.0
 21
-35.20000000000001
 31
0.0
  0
LINE
  5
224
  8
DATA
  6
CONTINUOUS
 62
     7
 10
69.600000000000023
 20
-36.70000000000001
 30
0.0
 11
72.0
 21
-36.70000000000001
 31
0.0
  0
LINE
  5
225
  8
DATA
  6
CONTINUOUS
 62
     7
 10
69.600000000000023
 20
-38.20000000000001
 30
0.0
 11
72.0
 21
-38.20000000000001
 31
0.0
  0
LINE
  5
226
  8
DATA
  6
CONTINUOUS
 62
     7
 10
69.600000000000023
 20
-39.70000000000001
 30
0.0
 11
72.0
 21
-39.70000000000001
 31
0.0
  0
LINE
  5
227
  8
DATA
  6
CONTINUOUS
 62
     7
 10
69.600000000000023
 20
-41.200000000000003
 30
0.0
 11
72.0
 21
-41.200000000000003
 31
0.0
  0
LINE
  5
228
  8
DATA
  6
CONTINUOUS
 62
     7
 10
69.600000000000023
 20
-42.70000000000001
 30
0.0
 11
72.0
 21
-42.70000000000001
 31
0.0
  0
LINE
  5
229
  8
DATA
  6
CONTINUOUS
 62
     7
 10
69.600000000000023
 20
-44.200000000000003
 30
0.0
 11
72.0
 21
-44.200000000000003
 31
0.0
  0
LINE
  5
22A
  8
DATA
  6
CONTINUOUS
 62
     7
 10
69.600000000000023
 20
-45.70000000000001
 30
0.0
 11
72.0
 21
-45.70000000000001
 31
0.0
  0
LINE
  5
22B
  8
DATA
  6
CONTINUOUS
 62
     7
 10
69.600000000000023
 20
-47.20000000000001
 30
0.0
 11
72.0
 21
-47.20000000000001
 31
0.0
  0
LINE
  5
22C
  8
DATA
  6
CONTINUOUS
 62
     7
 10
69.600000000000023
 20
-48.700000000000003
 30
0.0
 11
72.0
 21
-48.700000000000003
 31
0.0
  0
LINE
  5
22D
  8
DATA
  6
CONTINUOUS
 62
     7
 10
69.600000000000023
 20
-50.20000000000001
 30
0.0
 11
72.0
 21
-50.20000000000001
 31
0.0
  0
LINE
  5
22E
  8
DATA
  6
CONTINUOUS
 62
     7
 10
69.600000000000023
 20
-51.70000000000001
 30
0.0
 11
72.0
 21
-51.70000000000001
 31
0.0
  0
LINE
  5
22F
  8
DATA
  6
CONTINUOUS
 62
     7
 10
69.600000000000023
 20
-53.20000000000001
 30
0.0
 11
72.0
 21
-53.20000000000001
 31
0.0
  0
LINE
  5
230
  8
DATA
  6
CONTINUOUS
 62
     7
 10
69.600000000000023
 20
-54.70000000000001
 30
0.0
 11
72.0
 21
-54.70000000000001
 31
0.0
  0
LINE
  5
231
  8
DATA
  6
CONTINUOUS
 62
     7
 10
69.600000000000023
 20
-56.200000000000003
 30
0.0
 11
72.0
 21
-56.200000000000003
 31
0.0
  0
LINE
  5
232
  8
DATA
  6
CONTINUOUS
 62
     7
 10
69.600000000000023
 20
-57.70000000000001
 30
0.0
 11
72.0
 21
-57.70000000000001
 31
0.0
  0
LINE
  5
233
  8
DATA
  6
CONTINUOUS
 62
     7
 10
69.600000000000023
 20
-59.20000000000001
 30
0.0
 11
72.0
 21
-59.20000000000001
 31
0.0
  0
LINE
  5
234
  8
DATA
  6
CONTINUOUS
 62
     7
 10
69.600000000000023
 20
-60.70000000000001
 30
0.0
 11
72.0
 21
-60.70000000000001
 31
0.0
  0
LINE
  5
235
  8
DATA
  6
CONTINUOUS
 62
     7
 10
69.600000000000023
 20
-62.20000000000001
 30
0.0
 11
72.0
 21
-62.20000000000001
 31
0.0
  0
LINE
  5
236
  8
DATA
  6
CONTINUOUS
 62
     7
 10
69.600000000000023
 20
-63.700000000000003
 30
0.0
 11
72.0
 21
-63.700000000000003
 31
0.0
  0
LINE
  5
237
  8
DATA
  6
CONTINUOUS
 62
     7
 10
69.600000000000023
 20
-65.200000000000017
 30
0.0
 11
72.0
 21
-65.200000000000017
 31
0.0
  0
LINE
  5
238
  8
DATA
  6
CONTINUOUS
 62
     7
 10
69.600000000000023
 20
-66.700000000000017
 30
0.0
 11
72.0
 21
-66.700000000000017
 31
0.0
  0
LINE
  5
239
  8
DATA
  6
CONTINUOUS
 62
     7
 10
69.600000000000023
 20
-68.200000000000017
 30
0.0
 11
72.0
 21
-68.200000000000017
 31
0.0
  0
LINE
  5
23A
  8
DATA
  6
CONTINUOUS
 62
     7
 10
69.600000000000023
 20
-69.700000000000017
 30
0.0
 11
72.0
 21
-69.700000000000017
 31
0.0
  0
LINE
  5
23B
  8
DATA
  6
CONTINUOUS
 62
     7
 10
72.0
 20
-69.700000000000017
 30
0.0
 11
72.0
 21
-68.200000000000017
 31
0.0
  0
LINE
  5
23C
  8
DATA
  6
CONTINUOUS
 62
     7
 10
72.0
 20
-66.700000000000017
 30
0.0
 11
72.0
 21
-65.200000000000017
 31
0.0
  0
LINE
  5
23D
  8
DATA
  6
CONTINUOUS
 62
     7
 10
72.0
 20
-63.700000000000003
 30
0.0
 11
72.0
 21
-62.20000000000001
 31
0.0
  0
LINE
  5
23E
  8
DATA
  6
CONTINUOUS
 62
     7
 10
72.0
 20
-60.70000000000001
 30
0.0
 11
72.0
 21
-59.20000000000001
 31
0.0
  0
LINE
  5
23F
  8
DATA
  6
CONTINUOUS
 62
     7
 10
72.0
 20
-57.70000000000001
 30
0.0
 11
72.0
 21
-56.200000000000003
 31
0.0
  0
LINE
  5
240
  8
DATA
  6
CONTINUOUS
 62
     7
 10
72.0
 20
-54.70000000000001
 30
0.0
 11
72.0
 21
-53.20000000000001
 31
0.0
  0
LINE
  5
241
  8
DATA
  6
CONTINUOUS
 62
     7
 10
72.0
 20
-51.70000000000001
 30
0.0
 11
72.0
 21
-50.20000000000001
 31
0.0
  0
LINE
  5
242
  8
DATA
  6
CONTINUOUS
 62
     7
 10
72.0
 20
-48.700000000000003
 30
0.0
 11
72.0
 21
-47.20000000000001
 31
0.0
  0
LINE
  5
243
  8
DATA
  6
CONTINUOUS
 62
     7
 10
72.0
 20
-45.70000000000001
 30
0.0
 11
72.0
 21
-44.200000000000003
 31
0.0
  0
LINE
  5
244
  8
DATA
  6
CONTINUOUS
 62
     7
 10
72.0
 20
-42.70000000000001
 30
0.0
 11
72.0
 21
-41.200000000000003
 31
0.0
  0
LINE
  5
245
  8
DATA
  6
CONTINUOUS
 62
     7
 10
72.0
 20
-39.70000000000001
 30
0.0
 11
72.0
 21
-38.20000000000001
 31
0.0
  0
LINE
  5
246
  8
DATA
  6
CONTINUOUS
 62
     7
 10
72.0
 20
-36.70000000000001
 30
0.0
 11
72.0
 21
-35.20000000000001
 31
0.0
  0
LINE
  5
247
  8
DATA
  6
CONTINUOUS
 62
     7
 10
72.0
 20
-33.70000000000001
 30
0.0
 11
72.0
 21
-32.20000000000001
 31
0.0
  0
LINE
  5
248
  8
DATA
  6
CONTINUOUS
 62
     7
 10
72.0
 20
-30.70000000000001
 30
0.0
 11
72.0
 21
-29.20000000000001
 31
0.0
  0
LINE
  5
249
  8
DATA
  6
CONTINUOUS
 62
     7
 10
72.0
 20
-27.70000000000001
 30
0.0
 11
72.0
 21
-26.20000000000001
 31
0.0
  0
LINE
  5
24A
  8
DATA
  6
CONTINUOUS
 62
     7
 10
72.0
 20
-24.70000000000001
 30
0.0
 11
72.0
 21
-23.199999999999999
 31
0.0
  0
LINE
  5
24B
  8
DATA
  6
CONTINUOUS
 62
     7
 10
72.0
 20
-21.699999999999999
 30
0.0
 11
72.0
 21
-20.199999999999999
 31
0.0
  0
LINE
  5
24C
  8
DATA
  6
CONTINUOUS
 62
     7
 10
72.0
 20
-18.699999999999999
 30
0.0
 11
72.0
 21
-17.199999999999989
 31
0.0
  0
LINE
  5
24D
  8
DATA
  6
CONTINUOUS
 62
     7
 10
72.0
 20
-15.69999999999999
 30
0.0
 11
72.0
 21
-14.19999999999999
 31
0.0
  0
LINE
  5
24E
  8
DATA
  6
CONTINUOUS
 62
     7
 10
72.0
 20
-12.69999999999999
 30
0.0
 11
72.0
 21
-11.19999999999999
 31
0.0
  0
LINE
  5
24F
  8
DATA
  6
CONTINUOUS
 62
     7
 10
72.0
 20
-9.6999999999999975
 30
0.0
 11
72.0
 21
-8.2000000000000117
 31
0.0
  0
LINE
  5
250
  8
DATA
  6
CONTINUOUS
 62
     7
 10
72.600000000000023
 20
-8.2000000000000117
 30
0.0
 11
72.600000000000023
 21
-69.700000000000017
 31
0.0
  0
POLYLINE
  5
251
  8
DATA
  6
CONTINUOUS
 62
     7
 66
     1
 10
0.0
 20
0.0
 30
0.0
 70
   129
  0
VERTEX
  5
38F
  8
DATA
  6
CONTINUOUS
 62
     7
 10
-5.9000000000000048
 20
-8.2000000000000117
 30
0.0
 42
-0.4142135623730951
  0
VERTEX
  5
390
  8
DATA
  6
CONTINUOUS
 62
     7
 10
-4.9000000000000048
 20
-7.2000000000000091
 30
0.0
  0
VERTEX
  5
391
  8
DATA
  6
CONTINUOUS
 62
     7
 10
4.9000000000000048
 20
-7.2000000000000091
 30
0.0
 42
-0.4142135623730951
  0
VERTEX
  5
392
  8
DATA
  6
CONTINUOUS
 62
     7
 10
5.9000000000000048
 20
-8.2000000000000117
 30
0.0
  0
VERTEX
  5
393
  8
DATA
  6
CONTINUOUS
 62
     7
 10
5.9000000000000048
 20
-69.700000000000017
 30
0.0
 42
-0.4142135623730951
  0
VERTEX
  5
394
  8
DATA
  6
CONTINUOUS
 62
     7
 10
4.9000000000000048
 20
-70.700000000000017
 30
0.0
  0
VERTEX
  5
395
  8
DATA
  6
CONTINUOUS
 62
     7
 10
-4.9000000000000048
 20
-70.700000000000017
 30
0.0
 42
-0.4142135623730951
  0
VERTEX
  5
396
  8
DATA
  6
CONTINUOUS
 62
     7
 10
-5.9000000000000048
 20
-69.700000000000017
 30
0.0
  0
SEQEND
  5
397
  8
DATA
  6
CONTINUOUS
 62
     7
  0
POLYLINE
  5
25B
  8
DATA
  6
CONTINUOUS
 62
     7
 66
     1
 10
0.0
 20
0.0
 30
0.0
 70
   129
  0
VERTEX
  5
398
  8
DATA
  6
CONTINUOUS
 62
     7
 10
-6.7499999999999707
 20
-7.7000000000000099
 30
0.0
 42
-0.4142135623730951
  0
VERTEX
  5
399
  8
DATA
  6
CONTINUOUS
 62
     7
 10
-5.7499999999999707
 20
-6.7000000000000091
 30
0.0
  0
VERTEX
  5
39A
  8
DATA
  6
CONTINUOUS
 62
     7
 10
5.7500000000000284
 20
-6.7000000000000091
 30
0.0
 42
-0.4142135623730951
  0
VERTEX
  5
39B
  8
DATA
  6
CONTINUOUS
 62
     7
 10
6.7500000000000284
 20
-7.7000000000000099
 30
0.0
  0
VERTEX
  5
39C
  8
DATA
  6
CONTINUOUS
 62
     7
 10
6.7500000000000284
 20
-70.200000000000017
 30
0.0
 42
-0.4142135623730951
  0
VERTEX
  5
39D
  8
DATA
  6
CONTINUOUS
 62
     7
 10
5.7500000000000284
 20
-71.200000000000017
 30
0.0
  0
VERTEX
  5
39E
  8
DATA
  6
CONTINUOUS
 62
     7
 10
-5.7499999999999707
 20
-71.200000000000017
 30
0.0
 42
-0.4142135623730951
  0
VERTEX
  5
39F
  8
DATA
  6
CONTINUOUS
 62
     7
 10
-6.7499999999999707
 20
-70.200000000000017
 30
0.0
  0
SEQEND
  5
3A0
  8
DATA
  6
CONTINUOUS
 62
     7
  0
LINE
  5
265
  8
DATA
  6
CONTINUOUS
 62
     7
 10
5.0000000000000284
 20
-8.2000000000000117
 30
0.0
 11
5.0000000000000284
 21
-9.7000000000000082
 31
0.0
  0
LINE
  5
266
  8
DATA
  6
CONTINUOUS
 62
     7
 10
5.0000000000000284
 20
-11.20000000000001
 30
0.0
 11
5.0000000000000284
 21
-12.70000000000001
 31
0.0
  0
LINE
  5
267
  8
DATA
  6
CONTINUOUS
 62
     7
 10
5.0000000000000284
 20
-14.20000000000001
 30
0.0
 11
5.0000000000000284
 21
-15.70000000000001
 31
0.0
  0
LINE
  5
268
  8
DATA
  6
CONTINUOUS
 62
     7
 10
5.0000000000000284
 20
-17.20000000000001
 30
0.0
 11
5.0000000000000284
 21
-18.70000000000001
 31
0.0
  0
LINE
  5
269
  8
DATA
  6
CONTINUOUS
 62
     7
 10
5.0000000000000284
 20
-20.20000000000001
 30
0.0
 11
5.0000000000000284
 21
-21.70000000000001
 31
0.0
  0
LINE
  5
26A
  8
DATA
  6
CONTINUOUS
 62
     7
 10
5.0000000000000284
 20
-23.20000000000001
 30
0.0
 11
5.0000000000000284
 21
-24.70000000000001
 31
0.0
  0
LINE
  5
26B
  8
DATA
  6
CONTINUOUS
 62
     7
 10
5.0000000000000284
 20
-26.20000000000001
 30
0.0
 11
5.0000000000000284
 21
-27.70000000000001
 31
0.0
  0
LINE
  5
26C
  8
DATA
  6
CONTINUOUS
 62
     7
 10
5.0000000000000284
 20
-29.20000000000001
 30
0.0
 11
5.0000000000000284
 21
-30.70000000000001
 31
0.0
  0
LINE
  5
26D
  8
DATA
  6
CONTINUOUS
 62
     7
 10
5.0000000000000284
 20
-32.20000000000001
 30
0.0
 11
5.0000000000000284
 21
-33.70000000000001
 31
0.0
  0
LINE
  5
26E
  8
DATA
  6
CONTINUOUS
 62
     7
 10
5.0000000000000284
 20
-35.20000000000001
 30
0.0
 11
5.0000000000000284
 21
-36.70000000000001
 31
0.0
  0
LINE
  5
26F
  8
DATA
  6
CONTINUOUS
 62
     7
 10
5.0000000000000284
 20
-38.20000000000001
 30
0.0
 11
5.0000000000000284
 21
-39.70000000000001
 31
0.0
  0
LINE
  5
270
  8
DATA
  6
CONTINUOUS
 62
     7
 10
5.0000000000000284
 20
-41.200000000000003
 30
0.0
 11
5.0000000000000284
 21
-42.70000000000001
 31
0.0
  0
LINE
  5
271
  8
DATA
  6
CONTINUOUS
 62
     7
 10
5.0000000000000284
 20
-44.200000000000003
 30
0.0
 11
5.0000000000000284
 21
-45.70000000000001
 31
0.0
  0
LINE
  5
272
  8
DATA
  6
CONTINUOUS
 62
     7
 10
5.0000000000000284
 20
-47.20000000000001
 30
0.0
 11
5.0000000000000284
 21
-48.700000000000003
 31
0.0
  0
LINE
  5
273
  8
DATA
  6
CONTINUOUS
 62
     7
 10
5.0000000000000284
 20
-50.20000000000001
 30
0.0
 11
5.0000000000000284
 21
-51.70000000000001
 31
0.0
  0
LINE
  5
274
  8
DATA
  6
CONTINUOUS
 62
     7
 10
5.0000000000000284
 20
-53.20000000000001
 30
0.0
 11
5.0000000000000284
 21
-54.70000000000001
 31
0.0
  0
LINE
  5
275
  8
DATA
  6
CONTINUOUS
 62
     7
 10
5.0000000000000284
 20
-56.200000000000003
 30
0.0
 11
5.0000000000000284
 21
-57.70000000000001
 31
0.0
  0
LINE
  5
276
  8
DATA
  6
CONTINUOUS
 62
     7
 10
5.0000000000000284
 20
-59.20000000000001
 30
0.0
 11
5.0000000000000284
 21
-60.70000000000001
 31
0.0
  0
LINE
  5
277
  8
DATA
  6
CONTINUOUS
 62
     7
 10
5.0000000000000284
 20
-62.20000000000001
 30
0.0
 11
5.0000000000000284
 21
-63.700000000000003
 31
0.0
  0
LINE
  5
278
  8
DATA
  6
CONTINUOUS
 62
     7
 10
5.0000000000000284
 20
-65.200000000000017
 30
0.0
 11
5.0000000000000284
 21
-66.700000000000017
 31
0.0
  0
LINE
  5
279
  8
DATA
  6
CONTINUOUS
 62
     7
 10
5.0000000000000284
 20
-68.200000000000017
 30
0.0
 11
5.0000000000000284
 21
-69.700000000000017
 31
0.0
  0
LINE
  5
27A
  8
DATA
  6
CONTINUOUS
 62
     7
 10
-4.9999999999999707
 20
-8.2000000000000117
 30
0.0
 11
-4.9999999999999707
 21
-9.7000000000000082
 31
0.0
  0
LINE
  5
27B
  8
DATA
  6
CONTINUOUS
 62
     7
 10
-4.9999999999999707
 20
-11.20000000000001
 30
0.0
 11
-4.9999999999999707
 21
-12.70000000000001
 31
0.0
  0
LINE
  5
27C
  8
DATA
  6
CONTINUOUS
 62
     7
 10
-4.9999999999999707
 20
-14.20000000000001
 30
0.0
 11
-4.9999999999999707
 21
-15.70000000000001
 31
0.0
  0
LINE
  5
27D
  8
DATA
  6
CONTINUOUS
 62
     7
 10
-4.9999999999999707
 20
-17.20000000000001
 30
0.0
 11
-4.9999999999999707
 21
-18.70000000000001
 31
0.0
  0
LINE
  5
27E
  8
DATA
  6
CONTINUOUS
 62
     7
 10
-4.9999999999999707
 20
-20.20000000000001
 30
0.0
 11
-4.9999999999999707
 21
-21.70000000000001
 31
0.0
  0
LINE
  5
27F
  8
DATA
  6
CONTINUOUS
 62
     7
 10
-4.9999999999999707
 20
-23.20000000000001
 30
0.0
 11
-4.9999999999999707
 21
-24.70000000000001
 31
0.0
  0
LINE
  5
280
  8
DATA
  6
CONTINUOUS
 62
     7
 10
-4.9999999999999707
 20
-26.20000000000001
 30
0.0
 11
-4.9999999999999707
 21
-27.70000000000001
 31
0.0
  0
LINE
  5
281
  8
DATA
  6
CONTINUOUS
 62
     7
 10
-4.9999999999999707
 20
-29.20000000000001
 30
0.0
 11
-4.9999999999999707
 21
-30.70000000000001
 31
0.0
  0
LINE
  5
282
  8
DATA
  6
CONTINUOUS
 62
     7
 10
-4.9999999999999707
 20
-32.20000000000001
 30
0.0
 11
-4.9999999999999707
 21
-33.70000000000001
 31
0.0
  0
LINE
  5
283
  8
DATA
  6
CONTINUOUS
 62
     7
 10
-4.9999999999999707
 20
-35.20000000000001
 30
0.0
 11
-4.9999999999999707
 21
-36.70000000000001
 31
0.0
  0
LINE
  5
284
  8
DATA
  6
CONTINUOUS
 62
     7
 10
-4.9999999999999707
 20
-38.20000000000001
 30
0.0
 11
-4.9999999999999707
 21
-39.70000000000001
 31
0.0
  0
LINE
  5
285
  8
DATA
  6
CONTINUOUS
 62
     7
 10
-4.9999999999999707
 20
-41.200000000000003
 30
0.0
 11
-4.9999999999999707
 21
-42.70000000000001
 31
0.0
  0
LINE
  5
286
  8
DATA
  6
CONTINUOUS
 62
     7
 10
-4.9999999999999707
 20
-44.200000000000003
 30
0.0
 11
-4.9999999999999707
 21
-45.70000000000001
 31
0.0
  0
LINE
  5
287
  8
DATA
  6
CONTINUOUS
 62
     7
 10
-4.9999999999999707
 20
-47.20000000000001
 30
0.0
 11
-4.9999999999999707
 21
-48.700000000000003
 31
0.0
  0
LINE
  5
288
  8
DATA
  6
CONTINUOUS
 62
     7
 10
-4.9999999999999707
 20
-50.20000000000001
 30
0.0
 11
-4.9999999999999707
 21
-51.70000000000001
 31
0.0
  0
LINE
  5
289
  8
DATA
  6
CONTINUOUS
 62
     7
 10
-4.9999999999999707
 20
-53.20000000000001
 30
0.0
 11
-4.9999999999999707
 21
-54.70000000000001
 31
0.0
  0
LINE
  5
28A
  8
DATA
  6
CONTINUOUS
 62
     7
 10
-4.9999999999999707
 20
-56.200000000000003
 30
0.0
 11
-4.9999999999999707
 21
-57.70000000000001
 31
0.0
  0
LINE
  5
28B
  8
DATA
  6
CONTINUOUS
 62
     7
 10
-4.9999999999999707
 20
-59.20000000000001
 30
0.0
 11
-4.9999999999999707
 21
-60.70000000000001
 31
0.0
  0
LINE
  5
28C
  8
DATA
  6
CONTINUOUS
 62
     7
 10
-4.9999999999999707
 20
-62.20000000000001
 30
0.0
 11
-4.9999999999999707
 21
-63.700000000000003
 31
0.0
  0
LINE
  5
28D
  8
DATA
  6
CONTINUOUS
 62
     7
 10
-4.9999999999999707
 20
-65.200000000000017
 30
0.0
 11
-4.9999999999999707
 21
-66.700000000000017
 31
0.0
  0
LINE
  5
28E
  8
DATA
  6
CONTINUOUS
 62
     7
 10
-4.9999999999999707
 20
-68.200000000000017
 30
0.0
 11
-4.9999999999999707
 21
-69.700000000000017
 31
0.0
  0
LINE
  5
28F
  8
DATA
  6
CONTINUOUS
 62
     7
 10
-4.9999999999999707
 20
-8.2000000000000117
 30
0.0
 11
5.0000000000000284
 21
-8.2000000000000117
 31
0.0
  0
LINE
  5
290
  8
DATA
  6
CONTINUOUS
 62
     7
 10
-4.9999999999999707
 20
-9.7000000000000082
 30
0.0
 11
5.0000000000000284
 21
-9.7000000000000082
 31
0.0
  0
LINE
  5
291
  8
DATA
  6
CONTINUOUS
 62
     7
 10
-4.9999999999999707
 20
-11.20000000000001
 30
0.0
 11
5.0000000000000284
 21
-11.20000000000001
 31
0.0
  0
LINE
  5
292
  8
DATA
  6
CONTINUOUS
 62
     7
 10
-4.9999999999999707
 20
-12.70000000000001
 30
0.0
 11
5.0000000000000284
 21
-12.70000000000001
 31
0.0
  0
LINE
  5
293
  8
DATA
  6
CONTINUOUS
 62
     7
 10
-4.9999999999999707
 20
-14.20000000000001
 30
0.0
 11
5.0000000000000284
 21
-14.20000000000001
 31
0.0
  0
LINE
  5
294
  8
DATA
  6
CONTINUOUS
 62
     7
 10
-4.9999999999999707
 20
-15.70000000000001
 30
0.0
 11
5.0000000000000284
 21
-15.70000000000001
 31
0.0
  0
LINE
  5
295
  8
DATA
  6
CONTINUOUS
 62
     7
 10
-4.9999999999999707
 20
-17.20000000000001
 30
0.0
 11
5.0000000000000284
 21
-17.20000000000001
 31
0.0
  0
LINE
  5
296
  8
DATA
  6
CONTINUOUS
 62
     7
 10
-4.9999999999999707
 20
-18.70000000000001
 30
0.0
 11
5.0000000000000284
 21
-18.70000000000001
 31
0.0
  0
LINE
  5
297
  8
DATA
  6
CONTINUOUS
 62
     7
 10
-4.9999999999999707
 20
-20.20000000000001
 30
0.0
 11
5.0000000000000284
 21
-20.20000000000001
 31
0.0
  0
LINE
  5
298
  8
DATA
  6
CONTINUOUS
 62
     7
 10
-4.9999999999999707
 20
-21.70000000000001
 30
0.0
 11
5.0000000000000284
 21
-21.70000000000001
 31
0.0
  0
LINE
  5
299
  8
DATA
  6
CONTINUOUS
 62
     7
 10
-4.9999999999999707
 20
-23.20000000000001
 30
0.0
 11
5.0000000000000284
 21
-23.20000000000001
 31
0.0
  0
LINE
  5
29A
  8
DATA
  6
CONTINUOUS
 62
     7
 10
-4.9999999999999707
 20
-24.70000000000001
 30
0.0
 11
5.0000000000000284
 21
-24.70000000000001
 31
0.0
  0
LINE
  5
29B
  8
DATA
  6
CONTINUOUS
 62
     7
 10
-4.9999999999999707
 20
-26.20000000000001
 30
0.0
 11
5.0000000000000284
 21
-26.20000000000001
 31
0.0
  0
LINE
  5
29C
  8
DATA
  6
CONTINUOUS
 62
     7
 10
-4.9999999999999707
 20
-27.70000000000001
 30
0.0
 11
5.0000000000000284
 21
-27.70000000000001
 31
0.0
  0
LINE
  5
29D
  8
DATA
  6
CONTINUOUS
 62
     7
 10
-4.9999999999999707
 20
-29.20000000000001
 30
0.0
 11
5.0000000000000284
 21
-29.20000000000001
 31
0.0
  0
LINE
  5
29E
  8
DATA
  6
CONTINUOUS
 62
     7
 10
-4.9999999999999707
 20
-30.70000000000001
 30
0.0
 11
5.0000000000000284
 21
-30.70000000000001
 31
0.0
  0
LINE
  5
29F
  8
DATA
  6
CONTINUOUS
 62
     7
 10
-4.9999999999999707
 20
-32.20000000000001
 30
0.0
 11
5.0000000000000284
 21
-32.20000000000001
 31
0.0
  0
LINE
  5
2A0
  8
DATA
  6
CONTINUOUS
 62
     7
 10
-4.9999999999999707
 20
-33.70000000000001
 30
0.0
 11
5.0000000000000284
 21
-33.70000000000001
 31
0.0
  0
LINE
  5
2A1
  8
DATA
  6
CONTINUOUS
 62
     7
 10
-4.9999999999999707
 20
-35.20000000000001
 30
0.0
 11
5.0000000000000284
 21
-35.20000000000001
 31
0.0
  0
LINE
  5
2A2
  8
DATA
  6
CONTINUOUS
 62
     7
 10
-4.9999999999999707
 20
-36.70000000000001
 30
0.0
 11
5.0000000000000284
 21
-36.70000000000001
 31
0.0
  0
LINE
  5
2A3
  8
DATA
  6
CONTINUOUS
 62
     7
 10
-4.9999999999999707
 20
-38.20000000000001
 30
0.0
 11
5.0000000000000284
 21
-38.20000000000001
 31
0.0
  0
LINE
  5
2A4
  8
DATA
  6
CONTINUOUS
 62
     7
 10
-4.9999999999999707
 20
-39.70000000000001
 30
0.0
 11
5.0000000000000284
 21
-39.70000000000001
 31
0.0
  0
LINE
  5
2A5
  8
DATA
  6
CONTINUOUS
 62
     7
 10
-4.9999999999999707
 20
-41.200000000000003
 30
0.0
 11
5.0000000000000284
 21
-41.200000000000003
 31
0.0
  0
LINE
  5
2A6
  8
DATA
  6
CONTINUOUS
 62
     7
 10
-4.9999999999999707
 20
-42.70000000000001
 30
0.0
 11
5.0000000000000284
 21
-42.70000000000001
 31
0.0
  0
LINE
  5
2A7
  8
DATA
  6
CONTINUOUS
 62
     7
 10
-4.9999999999999707
 20
-44.200000000000003
 30
0.0
 11
5.0000000000000284
 21
-44.200000000000003
 31
0.0
  0
LINE
  5
2A8
  8
DATA
  6
CONTINUOUS
 62
     7
 10
-4.9999999999999707
 20
-45.70000000000001
 30
0.0
 11
5.0000000000000284
 21
-45.70000000000001
 31
0.0
  0
LINE
  5
2A9
  8
DATA
  6
CONTINUOUS
 62
     7
 10
-4.9999999999999707
 20
-47.20000000000001
 30
0.0
 11
5.0000000000000284
 21
-47.20000000000001
 31
0.0
  0
LINE
  5
2AA
  8
DATA
  6
CONTINUOUS
 62
     7
 10
-4.9999999999999707
 20
-48.700000000000003
 30
0.0
 11
5.0000000000000284
 21
-48.700000000000003
 31
0.0
  0
LINE
  5
2AB
  8
DATA
  6
CONTINUOUS
 62
     7
 10
-4.9999999999999707
 20
-50.20000000000001
 30
0.0
 11
5.0000000000000284
 21
-50.20000000000001
 31
0.0
  0
LINE
  5
2AC
  8
DATA
  6
CONTINUOUS
 62
     7
 10
-4.9999999999999707
 20
-51.70000000000001
 30
0.0
 11
5.0000000000000284
 21
-51.70000000000001
 31
0.0
  0
LINE
  5
2AD
  8
DATA
  6
CONTINUOUS
 62
     7
 10
-4.9999999999999707
 20
-53.20000000000001
 30
0.0
 11
5.0000000000000284
 21
-53.20000000000001
 31
0.0
  0
LINE
  5
2AE
  8
DATA
  6
CONTINUOUS
 62
     7
 10
-4.9999999999999707
 20
-54.70000000000001
 30
0.0
 11
5.0000000000000284
 21
-54.70000000000001
 31
0.0
  0
LINE
  5
2AF
  8
DATA
  6
CONTINUOUS
 62
     7
 10
-4.9999999999999707
 20
-56.200000000000003
 30
0.0
 11
5.0000000000000284
 21
-56.200000000000003
 31
0.0
  0
LINE
  5
2B0
  8
DATA
  6
CONTINUOUS
 62
     7
 10
-4.9999999999999707
 20
-57.70000000000001
 30
0.0
 11
5.0000000000000284
 21
-57.70000000000001
 31
0.0
  0
LINE
  5
2B1
  8
DATA
  6
CONTINUOUS
 62
     7
 10
-4.9999999999999707
 20
-59.20000000000001
 30
0.0
 11
5.0000000000000284
 21
-59.20000000000001
 31
0.0
  0
LINE
  5
2B2
  8
DATA
  6
CONTINUOUS
 62
     7
 10
-4.9999999999999707
 20
-60.70000000000001
 30
0.0
 11
5.0000000000000284
 21
-60.70000000000001
 31
0.0
  0
LINE
  5
2B3
  8
DATA
  6
CONTINUOUS
 62
     7
 10
-4.9999999999999707
 20
-62.20000000000001
 30
0.0
 11
5.0000000000000284
 21
-62.20000000000001
 31
0.0
  0
LINE
  5
2B4
  8
DATA
  6
CONTINUOUS
 62
     7
 10
-4.9999999999999707
 20
-63.700000000000003
 30
0.0
 11
5.0000000000000284
 21
-63.700000000000003
 31
0.0
  0
LINE
  5
2B5
  8
DATA
  6
CONTINUOUS
 62
     7
 10
-4.9999999999999707
 20
-65.200000000000017
 30
0.0
 11
5.0000000000000284
 21
-65.200000000000017
 31
0.0
  0
LINE
  5
2B6
  8
DATA
  6
CONTINUOUS
 62
     7
 10
-4.9999999999999707
 20
-66.700000000000017
 30
0.0
 11
5.0000000000000284
 21
-66.700000000000017
 31
0.0
  0
LINE
  5
2B7
  8
DATA
  6
CONTINUOUS
 62
     7
 10
-4.9999999999999707
 20
-68.200000000000017
 30
0.0
 11
5.0000000000000284
 21
-68.200000000000017
 31
0.0
  0
LINE
  5
2B8
  8
DATA
  6
CONTINUOUS
 62
     7
 10
-4.9999999999999707
 20
-69.700000000000017
 30
0.0
 11
5.0000000000000284
 21
-69.700000000000017
 31
0.0
  0
ARC
  5
2B9
  8
DATA
  6
CONTINUOUS
 62
     7
 10
71.600000000000023
 20
61.29999999999999
 30
0.0
 40
1.0
 50
0.0
 51
90.0
  0
ARC
  5
2BA
  8
DATA
  6
CONTINUOUS
 62
     7
 10
71.600000000000023
 20
-0.20000000000001
 30
0.0
 40
1.0
 50
270.0
 51
0.0
  0
ARC
  5
2BB
  8
DATA
  6
CONTINUOUS
 62
     7
 10
71.600000000000023
 20
-8.2000000000000117
 30
0.0
 40
1.0
 50
0.0
 51
90.0
  0
ARC
  5
2BC
  8
DATA
  6
CONTINUOUS
 62
     7
 10
71.600000000000023
 20
-69.700000000000017
 30
0.0
 40
1.0
 50
270.0
 51
0.0
  0
LINE
  5
2BD
  8
DATA
  6
STYLE_01
 62
     7
 10
58.25
 20
-67.0
 30
0.0
 11
66.0
 21
93.0
 31
0.0
  0
LINE
  5
2BE
  8
DATA
  6
STYLE_01
 62
     7
 10
101.75
 20
-67.0
 30
0.0
 11
58.25
 21
-67.0
 31
0.0
  0
LINE
  5
2BF
  8
DATA
  6
STYLE_01
 62
     7
 10
94.0
 20
93.0
 30
0.0
 11
101.75
 21
-67.0
 31
0.0
  0
LINE
  5
2C0
  8
DATA
  6
STYLE_01
 62
     7
 10
66.0
 20
93.0
 30
0.0
 11
94.0
 21
93.0
 31
0.0
  0
LINE
  5
2C1
  8
DATA
  6
STYLE_01
 62
     7
 10
65.0
 20
-97.0
 30
0.0
 11
95.0
 21
-97.0
 31
0.0
  0
LINE
  5
2C2
  8
DATA
  6
STYLE_01
 62
     7
 10
58.25
 20
-67.0
 30
0.0
 11
65.0
 21
-97.0
 31
0.0
  0
LINE
  5
2C3
  8
DATA
  6
STYLE_01
 62
     7
 10
101.75
 20
-67.0
 30
0.0
 11
95.0
 21
-97.0
 31
0.0
  0
LINE
  5
2C4
  8
DATA
  6
STYLE_01
 62
     7
 10
-21.749999999999972
 20
-67.0
 30
0.0
 11
-13.99999999999997
 21
93.0
 31
0.0
  0
LINE
  5
2C5
  8
DATA
  6
STYLE_01
 62
     7
 10
21.750000000000028
 20
-67.0
 30
0.0
 11
-21.749999999999972
 21
-67.0
 31
0.0
  0
LINE
  5
2C6
  8
DATA
  6
STYLE_01
 62
     7
 10
14.00000000000003
 20
93.0
 30
0.0
 11
21.750000000000028
 21
-67.0
 31
0.0
  0
LINE
  5
2C7
  8
DATA
  6
STYLE_01
 62
     7
 10
-13.99999999999997
 20
93.0
 30
0.0
 11
14.00000000000003
 21
93.0
 31
0.0
  0
LINE
  5
2C8
  8
DATA
  6
STYLE_01
 62
     7
 10
-14.99999999999997
 20
-97.0
 30
0.0
 11
15.00000000000002
 21
-97.0
 31
0.0
  0
LINE
  5
2C9
  8
DATA
  6
STYLE_01
 62
     7
 10
-21.749999999999972
 20
-67.0
 30
0.0
 11
-14.99999999999997
 21
-97.0
 31
0.0
  0
LINE
  5
2CA
  8
DATA
  6
STYLE_01
 62
     7
 10
21.750000000000028
 20
-67.0
 30
0.0
 11
15.00000000000002
 21
-97.0
 31
0.0
  0
LINE
  5
2CB
  8
DATA
  6
STYLE_01
 62
     7
 10
-101.7499999999999
 20
-67.0
 30
0.0
 11
-93.999999999999957
 21
93.0
 31
0.0
  0
LINE
  5
2CC
  8
DATA
  6
STYLE_01
 62
     7
 10
-58.249999999999972
 20
-67.0
 30
0.0
 11
-101.7499999999999
 21
-67.0
 31
0.0
  0
LINE
  5
2CD
  8
DATA
  6
STYLE_01
 62
     7
 10
-65.999999999999972
 20
93.0
 30
0.0
 11
-58.249999999999972
 21
-67.0
 31
0.0
  0
LINE
  5
2CE
  8
DATA
  6
STYLE_01
 62
     7
 10
-93.999999999999957
 20
93.0
 30
0.0
 11
-65.999999999999972
 21
93.0
 31
0.0
  0
LINE
  5
2CF
  8
DATA
  6
STYLE_01
 62
     7
 10
-94.999999999999957
 20
-97.0
 30
0.0
 11
-64.999999999999972
 21
-97.0
 31
0.0
  0
LINE
  5
2D0
  8
DATA
  6
STYLE_01
 62
     7
 10
-101.7499999999999
 20
-67.0
 30
0.0
 11
-94.999999999999957
 21
-97.0
 31
0.0
  0
LINE
  5
2D1
  8
DATA
  6
STYLE_01
 62
     7
 10
-58.249999999999972
 20
-67.0
 30
0.0
 11
-64.999999999999972
 21
-97.0
 31
0.0
  0
INSERT
  5
2D2
  8
DATA
 62
     7
  2
CALLOUT
 10
20.0
 20
110.0
 30
0.0
 50
228.7663879713345
  0
CIRCLE
  5
2D3
  8
DATA
  6
STYLE_01
 62
     7
 10
-79.999999999999972
 20
120.0
 30
0.0
 40
14.0
  0
CIRCLE
  5
2D4
  8
DATA
  6
STYLE_01
 62
     7
 10
-79.999999999999972
 20
120.0
 30
0.0
 40
21.75
  0
CIRCLE
  5
2D5
  8
DATA
  6
STYLE_01
 62
     7
 10
-79.999999999999972
 20
-210.0
 30
0.0
 40
14.0
  0
CIRCLE
  5
2D6
  8
DATA
  6
STYLE_01
 62
     7
 10
-79.999999999999972
 20
-210.0
 30
0.0
 40
21.75
  0
TEXT
  5
2D7
  8
DATA
 62
     7
 10
99.999999999999957
 20
-234.20640499999999
 30
0.0
 40
4.8865234375000002
  1
C568 B
 41
0.7
 11
99.999999999999957
 21
-229.3198815625
 31
0.0
 73
     3
  0
TEXT
  5
2D8
  8
DATA
 62
     7
 10
99.999999999999957
 20
-219.70640499999999
 30
0.0
 40
4.8865234375000002
  1
AKG
 41
0.7
 11
99.999999999999957
 21
-214.8198815625
 31
0.0
 73
     3
  0
TEXT
  5
2D9
  8
DATA
 62
     7
 10
94.999999999999957
 20
-226.660315
 30
0.0
 40
3.2576822916666659
  1
ショットガン・マイクロホン
 41
0.7
 11
94.999999999999957
 21
-223.40263270833341
 31
0.0
 73
     3
  0
ENDSEC
  0
EOF
